Oops, an error
Loading. Please wait.

Last Three Letters tab

version 4
version 4

Whole song

Interactive

by Alesana
732 views 1 this week
no commentswrite comment
1 2 3 4 5
1 last vote to show rating
add to favorites
×
Save as Personal and add changes to this tab that will be seen only by you. Learn more ›
×
You can save this tab as Personal to edit and correct it or add notes. All changes will be seen only by you. Learn more »
launch autoscroll
font size
0
reset
how to read this tab
guitar tuner
edit
Autoscroll
slow
fast
+/-
esc
set tempo
stop
THE LAST THREE LETTERS by Alesana
from the album On Frail Wings of Vanity and Wax

Tuning: Drop D (DADGBe)

I tabbed the three guitars, but I'm not quite sure if they are placed on the right guitarist.
These are only tabbed by ear, so this may not be 100% accurate.
Please rate, comment, and enjoy! :D


================================
GUITAR 1 (Shawn Milke) -> rhythm
================================

INTRO
|-----------------------------------|
|-----------------------------------|
|-----------------------------------|
|-----------------------------------|
|-----------------------------------|
|-----------------------------------|

Dearest love...
|----------------------------------------------------|
|----------------------------------------------------|
|--3333333----5555555----77777--77777--77777--77777--|
|--3333333----5555555----77777--77777--77777--77777--|
|--1111111----3333333----55555--55555--55555--55555--|
|----------------------------------------------------|
   *******    *******    *****  *****  *****  *****

As these...
|----------------------------------------------------|
|----------------------------------------------------|
|--3333333----5555555----77777--77777--77777--77777--|
|--3333333----5555555----77777--77777--77777--77777--|
|--1111111----3333333----55555--55555--55555--55555--|
|----------------------------------------------------|
   *******    *******    *****  *****  *****  *****

Every single word...
|----------------------------------------------------------|
|----------------------------------------------------------|
|--333333311111--555555555555----777777777777777777777777--|
|--333333311111--555555555555----777777777777777777777777--|
|--111111111111--333333333333----555555555555555555555555--|
|----------------------------------------------------------|
   ************  ************    ************************
Will
|-----------------------------------------------------|
|--------------------------------------------6666666--|
|--333333311111--555555555555----7777777777777777777--|
|--333333311111--555555555555----7777777777777777777--|
|--111111111111--333333333333----5555555555555555555--|
|-----------------------------------------------------|
   ************  ************    ************

VERSE 1
|--------------------------------------|------------------------------------|
|--------------------------------------|------------------------------------|
|--77--7--777--7--777--7--7------------|--77--7--777--7--7------------------|
|--77--7--777--7--777--7--7--10--8--7--|--77--7--777--7--7--55778810108877--|
|--55--5--555--5--555--5--5--10--8--7--|--55--5--555--5--5--55778810108877--|
|----------------------------10--8--7--|--------------------55778810108877--|
                                                            ******* * ****

|--------------------------------------|---------------------------------|
|--------------------------------------|---------------------------------|
|--77--7--777--7--777--7--7------------|--77--7--777--7--777--7--7--5~~--|
|--77--7--777--7--777--7--7--10--8--7--|--77--7--777--7--777--7--7--5~~--|
|--55--5--555--5--555--5--5--10--8--7--|--55--5--555--5--555--5--5--3~~--|
|----------------------------10--8--7--|---------------------------------|

CHORUS
(Just figure out the strumming)
|------------------------------------------------------|----------------|----|----------------|--|
|------------------------------------------------------|----------------|----|----------------|--|
|------------------------------------------------------|----------------|----|----------------|--|
|--8888888888888888--10101010101010101010101010101010--|--1212----1212--|----|--1212----1212--|--|
|--8888888888888888--10101010101010101010101010101010--|--1212----1212--|----|--1212----1212--|--|
|--8888888888888888--10101010101010101010101010101010--|--1212----1212--|----|--1212----1212--|--|

|------------------------------------------------------|----------------|----|----------------|--|
|------------------------------------------------------|----------------|----|----------------|--|
|------------------------------------------------------|----------------|----|----------------|--|
|--8888888888888888--10101010101010101010101010101010--|--1212---12-12--|----|--1212----1212--|--|
|--8888888888888888--10101010101010101010101010101010--|--1212----1212--|----|--1212----1212--|--|
|--8888888888888888--10101010101010101010101010101010--|--1212----1212--|----|--1212----1212--|--|

VERSE 2:
|------------------|--------------------------|--------------------------|
|------------------|--------------------------|--------------------------|
|------------------|--7--xxx--555--555--3--5--|--7--xxx--777--777--5--3--|
|------------------|--7--xxx--555--555--3--5--|--7--xxx--777--777--5--3--|
|------------------|--5--xxx--555--555--1--3--|--5--xxx--555--555--3--1--|
|------------------|--------------------------|--------------------------|

|------------------|--------------------------|--------------------------|
|------------------|--------------------------|--------------------------|
|------------------|--7--xxx--555--555--3--5--|--7--xxx--777--777--5--3--|
|------------------|--7--xxx--555--555--3--5--|--7--xxx--777--777--5--3--|
|------------------|--5--xxx--555--555--1--3--|--5--xxx--555--555--3--1--|
|------------------|--------------------------|--------------------------|

|---------------------|-----------------------|
|--3~~----5~~----6~~--|-----------------------|
|--3~~----5~~----7~~--|--7777--5555--3333--1--|
|--3~~----5~~----7~~--|--7777--5555--3333--5--|
|--1~~----3~~----5~~--|--5555--3333--1111--3--|
|---------------------|-----------------------|
   *      *      *       ****  ****  ****

REPEAT CHORUS

Make it stop...
|--------------------|---------------------|-------------------------|-------------------------|
|--------------------|---------------------|-------------------------|-------------------------|
|--7~~----3~~----5~--|--7~~----3~~----5~~--|--7777777----3~~----5~~--|--7777777----3~~----5~~--|
|--7~~----3~~----5~--|--7~~----3~~----5~~--|--7777777----3~~----5~~--|--7777777----3~~----5~~--|
|--5~~----1~~----3~--|--5~~----1~~----3~~--|--5555555----1~~----3~~--|--5555555----1~~----3~~--|
|--------------------|---------------------|-------------------------|-------------------------|
                                              *******                   *******

VERSE 3
|--------------------------------|---------|--------------------------------|---------|
|--------------------------------|---------|--------------------------------|---------|
|--777--757----777---------------|---------|--777--777----777---------------|---------|
|--777--757----777----888--8--8--|---------|--777--777----777----888--8--8--|---------|
|--555--555----555----888--8--8--|---------|--555--555----555----888--8--8--|---------|
|---------------------888--8--8--|---------|---------------------888--8--8--|---------|

|--------------------------------|---------|--------------------------------|---------|
|--------------------------------|---------|--------------------------------|---------|
|--777--757----777---------------|---------|--777--777----777---------------|---------|
|--777--757----777----888--8--8--|---------|--777--777----777----888--8--8--|---------|
|--555--555----555----888--8--8--|---------|--555--555----555----888--8--8--|---------|
|---------------------888--8--8--|---------|---------------------888--8--8--|---------|

REPEAT CHORUS

|--------------------------------------|-----------------------------------|
|--------------------------------------|-----------------------------------|
|--77--7--777--7--777--7--7------------|--77--7--777--7--7-----------------|
|--77--7--777--7--777--7--7--10--8--7--|--77--7--777--7--7--5577881010887--|
|--55--5--555--5--555--5--5--10--8--7--|--55--5--555--5--5--5577881010887--|
|----------------------------10--8--7--|--------------------5577881010887--|
                                                            ******* * **

===================================
GUITAR 2 (Patrick Thompson) -> lead
===================================

INTRO
|----------------8---------------8--|
|-----------8---------------8-------|
|-----10--------------10------------|
|--10----10---10---10----10---10----|
|-----------------------------------|
|-----------------------------------|

Dearest love...
|----------------8---------------8----------------8---------------8--|
|-----------8---------------8----------------8---------------8-------|
|-----10--------------10---------------10--------------10------------|
|--10----10---10---10----10---10----10----10---10---10----10---10----|
|--------------------------------------------------------------------|
|--------------------------------------------------------------------|

|-------------------------------------------------------8-------------|
|---------------------------------------8-----------------------------|
|-----10----9----10----10----9----10---------9----10---------9----10--|
|--10----10---10----10----10---10----10---10---10----10---10---10-----|
|---------------------------------------------------------------------|
|---------------------------------------------------------------------|

As these...
|----------------8---------------8----------------8---------------8--|
|-----------8---------------8----------------8---------------8-------|
|-----10--------------10---------------10--------------10------------|
|--10----10---10---10----10---10----10----10---10---10----10---10----|
|--------------------------------------------------------------------|
|--------------------------------------------------------------------|

|-------------------------------------------------------8-------------|
|---------------------------------------8-----------------------------|
|-----10----9----10----10----9----10---------9----10---------9----10--|
|--10----10---10----10----10---10----10---10---10----10---10---10-----|
|---------------------------------------------------------------------|
|---------------------------------------------------------------------|

Every single word...
|----------------8---------------8----------------8---------------8--|
|-----------8---------------8----------------8---------------8-------|
|-----10--------------10---------------10--------------10------------|
|--10----10---10---10----10---10----10----10---10---10----10---10----|
|--------------------------------------------------------------------|
|--------------------------------------------------------------------|

|----------------8---------------8----------------8---------------8--|
|-----------8---------------8----------------8---------------8-------|
|-----10--------------10---------------10--------------10------------|
|--10----10---10---10----10---10----10----10---10---10----10---10----|
|--------------------------------------------------------------------|
|--------------------------------------------------------------------|

   Will melt into...                                                      One
|----------------8---------------8----------------8---------------8--|-----------|
|-----------8---------------8----------------8---------------8-------|--6666666--|
|-----10--------------10---------------10--------------10------------|--7777777--|
|--10----10---10---10----10---10----10----10---10---10----10---10----|--7777777--|
|--------------------------------------------------------------------|--5555555--|
|--------------------------------------------------------------------|-----------|

VERSE 1: Follow the strumming
|------------------------------------|---------|
|------------------------------------|---------|
|------------------------------------|---------|
|--7-7----7-7--5-5----5-5--7-7--7-7--|--5-3-2--|
|------------------------------------|---------|
|------------------------------------|---------|

|--------------------------|-----------------------------|
|--------------------------|-----------------------------|
|--------------------------|-----------------------------|
|--7-7----7-7--5-5----5-5--|-----------------------------|
|--------------------------|--5-5-7-7-8-8-10-10-8-8-7-7--|
|--------------------------|-----------------------------|
                              * * * * * * * * * * * * *

|------------------------------------|---------|----------------------------------------|
|------------------------------------|---------|----------------------------------------|
|------------------------------------|---------|----------------------------------------|
|--7-7----7-7--5-5----5-5--7-7--7-7--|--5-3-2--|--7-7----7-7--5-5----5-5--7-7--7-7-5~~--|
|------------------------------------|---------|----------------------------------------|
|------------------------------------|---------|----------------------------------------|


CHORUS:
|-----------------12-13-12----------------------------12-13-12-----------|
|--15-13-------------------15-13-15----15-13-------------------15-13-15--|
|--------14-12-14----------------------------14-12-14--------------------|
|------------------------------------------------------------------------|
|------------------------------------------------------------------------|
|------------------------------------------------------------------------|

|-----------12-----|---------|-----------13-12--|---------|
|--15-13-------15--|---------|--15-13-----------|---------|
|------------------|--14/25--|------------------|--14\12--|
|------------------|--x-/x---|------------------|--x-\x---|
|------------------|--12/13--|------------------|--12\10--|
|------------------|---------|------------------|---------|

|-----------------12-13-12----------------------------12-13-12-----------|
|--15-13-------------------15-13-15----15-13-------------------15-13-15--|
|--------14-12-14----------------------------14-12-14--------------------|
|------------------------------------------------------------------------|
|------------------------------------------------------------------------|
|------------------------------------------------------------------------|

|-----------12-----|---------|-----------13-12--|---------|
|--15-13-------15--|---------|--15-13-----------|---------|
|------------------|--14/25--|------------------|--14\12--|
|------------------|--x-/x---|------------------|--x-\x---|
|------------------|--12/13--|------------------|--12\10--|
|------------------|---------|------------------|---------|

VERSE 2:
|---------------------------------------------------------------------------------------------|
|----------------------------------------------------------------------10----10----9----9-----|
|--10----10----10----10----10----10----10----10----9----9----9----9---------------------------|
|-----10----10----10----10----10----10----10----10---10---10---10---10----10----10---10---10--|
|---------------------------------------------------------------------------------------------|
|---------------------------------------------------------------------------------------------|

|-------------------------|-------------------------|
|-------------------------|-------------------------|
|--7--xxx--777777--14/15--|--7--xxx--777777--14\12--|
|--7--xxx--777777--x-/x---|--7--xxx--777777--x-\x---|
|--5--xxx--555555--12/13--|--5--xxx--555555--12\10--|
|-------------------------|-------------------------|

|---------------------------------------------------------------------------------------------|
|----------------------------------------------------------------------10----10----9----9-----|
|--10----10----10----10----10----10----10----10----9----9----9----9---------------------------|
|-----10----10----10----10----10----10----10----10---10---10---10---10----10----10---10---10--|
|---------------------------------------------------------------------------------------------|
|---------------------------------------------------------------------------------------------|

|-------------------------|-------------------------|
|-------------------------|-------------------------|
|--7--xxx--777777--14/15--|--7--xxx--777777--14\12--|
|--7--xxx--777777--x-/x---|--7--xxx--777777--x-\x---|
|--5--xxx--555555--12/13--|--5--xxx--555555--12\10--|
|-------------------------|-------------------------|

|----------------------|------------------------------|
|----------------------|------------------------------|
|--10~~----9~~----7~~--|--14141414121212121010101012--|
|--x-~~----x~~----x~~--|--x-x-x-x-x-x-x-x-x-x-x-x-x---|
|--8-~~----7~~----5~~--|--12121212101010108-8-8-8-10--|
|----------------------|------------------------------|

REPEAT CHORUS

(Not sure about these)

Make it stop...
|---------------------------------------------------------------------------------------------|
|-------8--------------8---------------------------------------8--------------8---------------|
|-----7------10-7----7------10----9-10----7----7-9-7----7----7------10-7----7------10-7----7--|
|--10-----10------10-----10----10------10---10-------10---10-----10------10-----10------10----|
|---------------------------------------------------------------------------------------------|
|---------------------------------------------------------------------------------------------|

|-----------------------------------------------------------------------------------|
|-------8--------------8------------------------------------------------------------|
|-----7------10-7----7------10----9-10----7----7-9-7----7----7-10----9----9-7----7--|
|--10-----10------10-----10----10------10---10-------10---10------10---10-----10----|
|-----------------------------------------------------------------------------------|
|-----------------------------------------------------------------------------------|

|---------------------------------------------------------------------------------------------|
|-------8--------------8---------------------------------------8--------------8---------------|
|-----7------10-7----7------10----9-10----7----7-9-7----7----7------10-7----7------10-7----7--|
|--10-----10------10-----10----10------10---10-------10---10-----10------10-----10------10----|
|---------------------------------------------------------------------------------------------|
|---------------------------------------------------------------------------------------------|

|-----------------------------------------------------------------------------------|
|-------8--------------8------------------------------------------------------------|
|-----7------10-7----7------10----9-10----7----7-9-7----7----7-10----9----9-7----7--|
|--10-----10------10-----10----10------10---10-------10---10------10---10-----10----|
|-----------------------------------------------------------------------------------|
|-----------------------------------------------------------------------------------|

VERSE 3
|-------------------|--------5----------|-------------------|--------5------------------5--------|
|-------------------|----6-8-----6-5~~--|-------------------|----6-8-----6-5~~------6-8---6------|
|-------------------|--7-------7--------|-------------------|--7-------7----------7---------7~~--|
|-------------------|-------------------|-------------------|------------------------------------|
|-------------------|-------------------|-------------------|------------------------------------|
|-------------------|-------------------|-------------------|------------------------------------|

(listen carefully for the lead part here)
|------------5---5---5---5----------------|--------5----------|
|--------------7---7---7---7---5-6-8-6-5--|----6-8-----6-5~~--|
|----------------------------7------------|--7-------7--------|
|-----------------------------------------|-------------------|
|-----------------------------------------|-------------------|
|-----------------------------------------|-------------------|

|------------5---5---5---5----------------|--------5------------------5--------|
|--------------7---7---7---7---5-6-8-6-5--|----6-8-----6-5~~------6-8---6------|
|----------------------------7------------|--7-------7----------7---------7~~--|
|-----------------------------------------|------------------------------------|
|-----------------------------------------|------------------------------------|
|-----------------------------------------|------------------------------------|

REPEAT CHORUS

Steel whispers...
|------------------------------------|---------|
|------------------------------------|---------|
|------------------------------------|---------|
|--7-7----7-7--5-5----5-5--7-7--7-7--|--5-3-2--|
|------------------------------------|---------|
|------------------------------------|---------|

|--------------------------|-----------------------------|
|--------------------------|-----------------------------|
|--------------------------|-----------------------------|
|--7-7----7-7--5-5----5-5--|--------------------------7--|
|--------------------------|--5-5-7-7-8-8-10-10-8-8-7-7--|
|--------------------------|--------------------------7--|
                              * * * * * * * * * * * *

========================================
GUITAR 3 (Adam Ferguson) -> uhh, melody?
========================================

INTRO
|-----------------------------------|
|-----------------------------------|
|-----------------------------------|
|-----------------------------------|
|-----------------------------------|
|-----------------------------------|

Dearest love...
|----------------------------------------------------|
|----------------------------------------------------|
|--3333333----5555555----77777--77777--77777--77777--|
|--3333333----5555555----77777--77777--77777--77777--|
|--1111111----3333333----55555--55555--55555--55555--|
|----------------------------------------------------|
   *******    *******    *****  *****  *****  *****

As these...
|----------------------------------------------------|
|----------------------------------------------------|
|--3333333----5555555----77777--77777--77777--77777--|
|--3333333----5555555----77777--77777--77777--77777--|
|--1111111----3333333----55555--55555--55555--55555--|
|----------------------------------------------------|
   *******    *******    *****  *****  *****  *****

Every single word...
|----------------------------------------------------------------|
|------------------------5--5--5------------------------6--6--6--|
|--333333311111--555555--5--5--5----777777777777777777--7--7--7--|
|--333333311111--555555--5--5--5----777777777777777777--7--7--7--|
|--111111111111--333335--3--3--3----555555555555555555--5--5--5--|
|----------------------------------------------------------------|
   ************  ******             ******************

Will
|--------------------------------------------------------|
|-----------------------------------------------6666666--|
|--333333311111--555555--5--5--5----7777777777777777777--|
|--333333311111--555555--5--5--5----7777777777777777777--|
|--111111111111--333333--3--3--3----5555555555555555555--|
|--------------------------------------------------------|
   ************  ******             ************


VERSE 1
|----------------------------|----------|------------------------------------|
|----------------------------|----------|------------------------------------|
|----------------------------|----------|------------------------------------|
|--00--0--000--0--000--0--0--|--10\8\7--|--00--0--000--0--0--55778810108877--|
|--00--0--000--0--000--0--0--|--10\8\7--|--00--0--000--0--0--55778810108877--|
|--00--0--000--0--000--0--0--|--10\8\7--|--00--0--000--0--0--55778810108877--|
   **  *  ***  *  ***  *  *                **  *  ***  *  *  ******* * ****

|----------------------------|----------|----------------------------------|
|----------------------------|----------|----------------------------------|
|----------------------------|----------|----------------------------------|
|--00--0--000--0--000--0--0--|--10\8\7--|--00--0--000--0--000--0--0--10~~--|
|--00--0--000--0--000--0--0--|--10\8\7--|--00--0--000--0--000--0--0--10~~--|
|--00--0--000--0--000--0--0--|--10\8\7--|--00--0--000--0--000--0--0--10~~--|
   **  *  ***  *  ***  *  *                **  *  ***  *  ***  *  *  *

CHORUS
|----------------------------------------------------------------|---------|------------|--------|
|----------------------------------------------------------------|---------|------------|--------|
|----------------------------------------------------------------|--10\12--|------------|--10/9--|
|--8888888888888888--10101010101010101010101010101010--00----00--|--x-\x---|--00----00--|--x-/x--|
|--8888888888888888--10101010101010101010101010101010--00----00--|--8-\10--|--00----00--|--8-/7--|
|--8888888888888888--10101010101010101010101010101010--00----00--|---------|--00----00--|--------|

|----------------------------------------------------------------|---------|------------|--------|
|----------------------------------------------------------------|---------|------------|--------|
|----------------------------------------------------------------|--10\12--|------------|--10/9--|
|--8888888888888888--10101010101010101010101010101010--00----00--|--x-\x---|--00----00--|--x-/x--|
|--8888888888888888--10101010101010101010101010101010--00----00--|--8-\10--|--00----00--|--8-/7--|
|--8888888888888888--10101010101010101010101010101010--00----00--|---------|--00----00--|--------|

VERSE 2
|--------------------------------------------------------------|
|--------------------------------------------------------------|
|--10101010101010101010101010101010/99999999\10101010/121212/--|
|--x-x-x-x-x-x-x-x-x-x-x-x-x-x-x-x-/xxxxxxxx\x-x-x-x-/x-x-x-/--|
|--8-8-8-8-8-8-8-8-8-8-8-8-8-8-8-8-/77777777\12121212/101010/--|
|--------------------------------------------------------------|

|-------------------------|------------------------|
|-------------------------|------------------------|
|--7--xxx--777777--10/12--|--7--xxx--777777--10\9--|
|--7--xxx--777777--x-/x---|--7--xxx--777777--x-\x--|
|--5--xxx--555555--8-/10--|--5--xxx--555555--8-\7--|
|-------------------------|------------------------|

|--------------------------------------------------------------|
|--------------------------------------------------------------|
|--10101010101010101010101010101010/99999999\10101010/121212/--|
|--x-x-x-x-x-x-x-x-x-x-x-x-x-x-x-x-/xxxxxxxx\x-x-x-x-/x-x-x-/--|
|--8-8-8-8-8-8-8-8-8-8-8-8-8-8-8-8-/77777777\12121212/101010/--|
|--------------------------------------------------------------|

|-------------------------|------------------------|
|-------------------------|------------------------|
|--7--xxx--777777--10/12--|--7--xxx--777777--10\9--|
|--7--xxx--777777--x-/x---|--7--xxx--777777--x-\x--|
|--5--xxx--555555--8-/10--|--5--xxx--555555--8-\7--|
|-------------------------|------------------------|

|---------------------|------------------------|
|---------------------|------------------------|
|---------------------|--10101010\9999\7777/9--|
|---------------------|--10101010\9999\7777/9--|
|--8~~----7~~----5~~--|--8-8-8-8-\7777\5555/7--|
|---------------------|------------------------|
   *      *      *

REPEAT CHORUS

Make it stop...
|--------------------|---------------------|-------------------------|-------------------------|
|--------------------|---------------------|-------------------------|-------------------------|
|---------3~~----5~--|---------3~~----5~~--|-------------3~~----5~~--|-------------3~~----5~~--|
|--0~~----3~~----5~--|--0~~----3~~----5~~--|--0000000----3~~----5~~--|--0000000----3~~----5~~--|
|--0~~----1~~----3~--|--0~~----1~~----3~~--|--0000000----1~~----3~~--|--0000000----1~~----3~~--|
|--0~~---------------|--0------------------|--0000000----------------|--0000000----------------|
                                              *******                   *******

VERSE 3
|--------------------------------|-----------------|
|--------------------------------|-----------------|
|---------------------333--3--3--|--------2--------|
|--000--000----000----333--3--3--|--0-3-5---0-3-2--|
|--000--000----000----111--1--1--|-----------------|
|--000--000----000---------------|-----------------|

|--------------------------------|-----------------------------------|
|--------------------------------|-----------------------------------|
|---------------------333--3--3--|--------2------------------2-------|
|--000--000----000----333--3--3--|--0-3-5---0-3-2~~----0-3-5---3--0--|
|--000--000----000----111--1--1--|-----------------------------------|
|--000--000----000---------------|-----------------------------------|

|--------------------------------|-----------------|
|--------------------------------|-----------------|
|---------------------333--3--3--|--------2--------|
|--000--000----000----333--3--3--|--0-3-5---0-3-2--|
|--000--000----000----111--1--1--|-----------------|
|--000--000----000---------------|-----------------|

|--------------------------------|-----------------------------------|
|--------------------------------|-----------------------------------|
|---------------------333--3--3--|--------2------------------2-------|
|--000--000----000----333--3--3--|--0-3-5---0-3-2~~----0-3-5---3--0--|
|--000--000----000----111--1--1--|-----------------------------------|
|--000--000----000---------------|-----------------------------------|

REPEAT CHORUS

Steel whispers...
|----------------------------|----------|-----------------------------------|
|----------------------------|----------|-----------------------------------|
|----------------------------|----------|-----------------------------------|
|--00--0--000--0--000--0--0--|--10\8\7--|--00--0--000--0--0--5577881010887--|
|--00--0--000--0--000--0--0--|--10\8\7--|--00--0--000--0--0--5577881010887--|
|--00--0--000--0--000--0--0--|--10\8\7--|--00--0--000--0--0--5577881010887--|
   **  *  ***  *  ***  *  *                **  *  ***  *  *  ******* * **

            
            
Suggest correction
Creating personal tab
Creating personal tab
You can edit any tab online and save it as your Personal.

You can edit, replace or remove any tab part or add personal notes – all changes will be seen only by you.

Personal tabs can be accessed anytime from any device, even offline.
Learn more »
Give kudos to tab author, rate the tab!
1 2 3 4 5
comments
print report bad tab
guest
You may want to rate the tab now too:
select rating
Wanna post a correction for this tab? Suggest correction