Oops, an error
Loading. Please wait.

On Frail Wings Of Vanity And Wax album bass

by Alesana
4,028 views 1 this week
7 commentsread comments
1 2 3 4 5
x 9
add to favorites
×
Save as Personal and add changes to this tab that will be seen only by you. Learn more ›
×
You can save this tab as Personal to edit and correct it or add notes. All changes will be seen only by you. Learn more »
launch autoscroll
font size
0
reset
guitar tuner
edit
Autoscroll
slow
fast
+/-
esc
set tempo
stop
Author
+++++++++++++++++++++++++++++++++++++++++++++
| Alesana- On Frail Wings Of Vanity And Wax |
+++++++++++++++++++++++++++++++++++++++++++++

Bass Tab
Tuning: EADG and Drop D

+++++++++++++++++++++++

All these tabs are my own ear transcribed material.
I have made some corrections to the tabs :)
I hope you enjoy

Tracks:

1. Icarus
2. Ambrosia
3. Pathetic Ordinary
4. Alchemy Sounded Good At The Time
5. Daggers Speak Louder Than Words
6. The Last Three Letters
7. Apology
8. Tilting The Hourglass 
9. This Conversation Is Over
10. Congratulations, I Hate You 
11. The Third Temptation of Paris
12. A Siren's Soliloquy
13. Nero's Decay

++++++++++++++++++++++++

1. Icarus

No Bass

Lyrics:

...Black engulfs the dying light as he falls on frail wings of vanity and wax.. 

++++++++++++++++++++++++

2. Ambrosia

Tuning: Drop D

Intro.
1.
|------|
|------|
|-7~---|
|------|

"A touch of poison.. Seals my fate..!"
2.
|--------------------------------------9~--|
|-------------------------------7-9-10-----|
|--5-3-------------------------------------|
|------5-000000000000000000000x------------|

"Once king of roses.."
3.
|-------------------------------------------|
|-------------------------------------------|
|-------------------------------------------|
|-555555555-333333333-111111111-333333333---|

"The gods themselves envy my hand.."
4.
|-------------------------------------------|
|---------------------333333333-555555555---|
|-------------------------------------------|
|-555555555-333333333--------------------5x-|

Pre-Chorus
5.
|-------------------------------------------|
|-------------------------------------------|
|------------------------------12~----------|
|-------------------------------------------|

Chorus
"I curse the day my dream became my decent.."
6.
|---------------------------------------------|
|---------------------------------------------|
|---------------------------------------------|
|--555555555555555-57875-33333333333333/151515|

7.
|-------------------------------------------|
|-------------------------------------------|
|-----------------777x------777x-777x-------|
|-111111111111111------000x-----------------|

Verse
"In my perfection..."
8.
|-------------------------------------------|
|-------------------------------------------|
|-------------------------------------------|
|-555555555-333333333-111111111-333333333---|

"Yet eyes stil glint.."
9.
|-------------------------------------------|
|---------------------333333333-555555555---|
|-------------------------------------------|
|-555555555-333333333--------------------5x-|

Pre-Chorus
10.
|-------------------------------------------|
|-------------------------------------------|
|------------------------------12~----------|
|-------------------------------------------|

Chorus
"I curse the day my dream became my decent.."
11.
|---------------------------------------------|
|---------------------------------------------|
|---------------------------------------------|
|--555555555555555-57875-33333333333333/151515|

12.
|-------------------------------------------|
|-------------------------------------------|
|-----------------777x------777x-777x-------|
|-111111111111111------000x-----------------|

Outro.
"HAVE I NOT..." x4
13.
|----------------------|
|----------------------|
|-3-3-3-3-2-2-2-2x-----|
|------------------0~--|

Bass Solo
14.
|-------------------------------------------|
|------------------------------------9~-----|
|------75----575----------75-----575--------|
|-7-0----5--5---55-33-0-0---5---5-----------|

"Oh yeah!.. Ive got her.. Hook, line and sinker.."
15.
|---------------------------------------|
|---------------------------------------|
|----7-5-------------7-5----------------|-- For a bunch of times
|--00----5x--3-5-3-00----5x--3-5-3------|    

"Now she's good as gold..."
16.
|--------9~--|
|-7-9-10-----|
|------------|
|------------|

Lyrics:

A touch of poison seals my fate
the dawn echoes the night with my glory...the sun himself honors me

Once king of roses, now lord of gold
the Gods themselves envy my hand
blessed with the gift of gilded touch
fate wields its knife to cut the thread

I curse the day my dream became my descent
suddenly I long for you, my only love

In my perfection I have no want
yet eyes still glint with greed untold
a folly as fatal as sin has now become the end of me

Have I not earned this, the gift of beauty within?
how selfish were the Gods to keep their riches from my rightful treasure?
I truly have become one of them...my fatal flaw

Oh yeah! Ive got her hook, line, and sinker!
thanks to me, shes her own new necklace!
now shes good as gold! 

...cut the thread... 

++++++++++++++++++++++++++++++++++++

3. Pathetic Ordinary

Tuning: EADG

Intro.
1.
G|----------------------------------|
D|----------------------------------|
A|-5/7-5-----------2~----3~----5~---|
E|------753-0~----------------------|

2.
G|----------------------------------|
D|----------------------------------|
A|------2~----3~----5-5-5-5-5-55555-|
E|-0~-------------------------------|

Verse
"In dreams, I see her.."
3.
G|-----------------------------------------------|
D|-----------------------------------------------|
A|------------------------2222222x-22-2-2-22-2-2-|
E|-0000000x-00-0-0-00-0-0------------------------|

4.
G|-----------------------------------------------|
D|-----------------------------------------------|
A|-3333333x-33-3-3-33-3-3-5555555x-55-5-5-55-5-5-|
E|-----------------------------------------------|

"Her soft eyes see.."
5.
G|-----------------------------------------------|
D|-----------------------------------------------|
A|------------------------2222222x-22-2-2-22-2-2-|
E|-0000000x-00-0-0-00-0-0------------------------|

6.
G|------------------------------------------|
D|------------------------------------------|
A|-3333333x-33-3-3-33-3-3-5555555x-5555555x-|
E|------------------------------------------|

Pre-Chorus
"As her selfish words rain.."
7.
G|---------------------------------|
D|---------------------------------|
A|-2~----2~----2222222222222222222-|
E|---------------------------------|

Chorus
"Frigid air leaves me breathless.."
8.
G|-------------------------------------------------------------|
D|-------------------------------------------------------------|
A|-------------------------------------------------------------|
E|-333333333333333333333333-33x-33x-32222222222222222222222222-|

"As I try to scream for her.."
9.
G|-------------------------------------------------|
D|-------------------------------------------------|
A|-1-1x-1-1x-2~----2~----2~-22x-22x000000000000000-|
E|-------------------------------------------------|

Outro.
"On my knees, I cry... Listen to ME!!!!!"
10.
G|----------------------------------|
D|----------------------------------|
A|----------------------------------|
E|-12/5555555555555555x-0x-0x-0x-0x-|

"I'm broken by her silence.."
11.
G|--------------------------------------------------|
D|--------------------------------------------------|
A|--------------------------22222222222222222222222-|
E|-000000000000000000000000-------------------------|

12.
G|--------------------------------------------------|
D|--------------------------------------------------|
A|-333333333333333333333333-55555555555555555555555-|
E|--------------------------------------------------|

"My wingless angel..."
13.
G|--------------------------------------------------------------------|
D|--------------------------------------------------------------------|
A|--------------------2222x-222-2222x----3333x-333-3333x----5555x-555-|
E|-0000x-000-0000x----------------------------------------------------|

Bass Solo
14.
G|-----------------------------------------------------------|
D|----------5h7p5-----------------------------5~-5-5-7-5-----|
A|-2~-2-2-2-------5~-5-5-5-5h7p5----------3-5------------7-5-|
E|-------------------------------3~-3-3-3--------------------|

15.
G|----------------------------------|
D|----------5h7p5-------------------|
A|-2~-2-2-2-------5~-5-5-5-5h7p5----|
E|-------------------------------3~-|

Chorus x2
Outro

3:07
16.
G|-------------------------------------|
D|-------------------------------------|
A|----------------------2~-----333-222-|
E|-0~-----3~-----5~--------------------|

17.
G|--------------------------------|
D|--------------------------------|
A|--------------------------------|
E|-00000x------00000x------00000x-|

18.
G|------------------------2-3-5-7-|
D|----------------2-3-4-5---------|
A|-1-0----------------------------|
E|-----3-0-1~-3~------------------|

19.
G|------------------------------------------------------|
D|------------------------------------------------------|
A|----------2-2-2-2-2-2-2-2-2-222222222222222222222222x-|
E|-3~---5~----------------------------------------------|

Lyrics:

She haunts me in dreams
I see her silhouette dance across landscapes of golden
light and autumn
...in my dreams...

Her soft eyes see through my tortured soul
vanishing any hope for fantasy
the thing I'd give, to prove myself to her, to make her see...

Jaded eyes awake as her selfish words rain from such placid lips
still I kiss her silken flesh

Frigid air leaves me breathless
foolish agony fills my lungs as I try to scream for her
I confess...I scare myself
through the howling wind, on my knees, I cry
...listen to me...

I'm broken by her silence to a love unseen
blood soaked feathers rained down
my wingless angel so broken falls gracefully from the sky
to waiting arms...to waiting arms...

Such foolish agony fills my lungs as I try to scream for her
jaded eyes wake to the sounds of my voice as I scream to her
in dreams I've seen her silhouette dance across golden light
and autumn...in my dreams...

+++++++++++++++++++++++++++++++

4. Alchemy Sounded Good At The Time

Tuning: Drop D

Intro.
1.
|---------------------------------------------|
|---------------------------------------------|
|-7~x---7~x---7~x-7----7--7~x-7----7-7-7-7-3x-|
|------------------0-0---------0-0------------|

"My darling queen.."
2.
|----------------------------------|
|----------------------------------|
|------3~---0x-----3~-0x-----------|
|----------------------------------|

"Wind cries out.."
3.
|--------------------------------------------------------------------|
|--------------------------------------------------------------------|
|-000000000000-0x-0-000000000000-0x-3-333333333333-3x-3333333333333-3|
|--------------------------------------------------------------------|

4.
|------------------------------------|
|------------------------------------|
|-000000000000-0x-0-000000000000-0x--|
|------------------------------------|

"I have deceived.." x2
5.
|------------------------------|
|------------------------------|
|------------------------------|
|-0-0-000x--0-0-000x-0-0-000x--|

6.
|--------------|
|--------------|
|--7-7-777x----|
|--------------|

Chorus
"Cold flesh lends to me it's secret.."
7.
|-----------------------------------------------------------|
|-----------------------------------------------------------|
|-3333333333333-5555555555555-77777777777777-22222222222222-|
|-----------------------------------------------------------|

"For a price too high.."
8.
|--------------------------------------------------------------------|
|--------------------------------------------------------------------|
|-33333333333333-5555555/14141414141414-777777777777777-222222222222-|
|--------------------------------------------------------------------|

"I shudder at what I have done.."
9.
|----------------------|
|----------------------|
|-3x---3x---5x---5x----|
|----------------------|

Outro.
10.
|-------------------------------------|
|-------------------------------------|
|-7~x--7----7--7~x-7----7-7-7-7-3x----|
|-------0-0---------000---------------|

"Chills take me as she wakes.."
11.
|--------------------------------------------------------------------|
|--------------------------------------------------------------------|
|-000000000000-0x-0-000000000000-0x-3-333333333333-3x-3333333333333-3|
|--------------------------------------------------------------------|

12.
|--------------------------------------------------------------------|
|--------------------------------------------------------------------|
|-000000000000-0x-0-000000000000-0x-3-333333333333333333333~---------|
|--------------------------------------------------------------------|

"I'm so consumed by.." x2
13.
|------------------------------------------|
|------------------------------------------|
|-3-3-3-3x--5-5-5-5x-----------------------|
|---------------------0-0-0-0x--0-0-0-0x---|

Chorus
"Cold flesh lends to me it's secret.."
14.
|-----------------------------------------------------------|
|-----------------------------------------------------------|
|-3333333333333-5555555555555-77777777777777-22222222222222-|
|-----------------------------------------------------------|

"For a price too high.."
15.
|--------------------------------------------------------------------|
|--------------------------------------------------------------------|
|-33333333333333-5555555/14141414141414-777777777777777-222222222222-|
|--------------------------------------------------------------------|

"I shudder at what I have done.."
16.
|----------------------|
|----------------------|
|-3x---3x---5x---5x----|
|----------------------|

"The pains of death can no longer haunt you.."
17.
|--------|
|--------|
|--------|
|-0~-0~--|----- x4

"The hands of fate.."
18.
|----------------------------------------|
|----------------------------------------|
|---------------------77777777777777777--|
|-0-1/2-1-0x-0x-0x-0x--------------------|

"Sinews twicht...."
19.
|------------------------------|
|---------------------5/3-0-2--|
|------------------------------|
|-0x-0x-0x-0x-0-1/2-1----------|

20.
|--------------------------------|
|--------------------------------|
|-------------7777777777777777---|
|-0x-0x-0x-0x--------------------|

21.
|-------------------------|
|-------------------------|
|-------------------------|
|-0x-0x-0x-0x-0-1/2-1-----|

22.
|--------------------------------|
|--------------------------------|
|-------------7777777777777777---|
|-0x-0x-0x-0x--------------------|

23.
|--------------------------------|
|---------------------5/3-0-2----|
|--------------------------------|
|-0x-0x-0x-0x-0-1/2-1---------0~-|

Lyrics:

My darling queen, I lay myself at your feet
and I shall stay the hands of fate

Wind cries out, heavens boil above voicing discontent to my sins
I have found the way to trick the ferryman
I have deceived the ancient Gods

Cold flesh lends to me its secrets for a price too high
I shudder at what I have done
each day brings me closer to you, my tragic victory

Darling queen I lay at your feet...
chills take me as she wakes, throat gasps tainted breath
Ive reclaimed you my stolen bride
can your soul forgive my crimes of passion?
I would not close the casket; Im so consumed by your pain
faint screams echo through the night...

The pains of death can no longer haunt you
as the dawning sky brings forth one forsaken thought
death can not win for I now dwell in the palace of decay
and I shall stay the hands of fate

Night descends, sinews twitch
my pale queen finally stands to taste silent lips now cursed with her love

+++++++++++++++++++++++++++++++++++++

5. Daggers Speak Louder Than Words

Tuning: EADG

"Eyes open to splattered blood.." 
1.
G|----------------------------------------------|
D|----------------------------------------------|
A|-2x-222x-22-2x-222x-22------------------------|
E|-----------------------3x-333x-33-5x-55-2x-22-|

"Shifting thoughts no slow with venom.."
2.
G|----------------------------------------------|
D|----------------------------------------------|
A|-2x-222x-22-2x-222x-22------------------------|
E|-----------------------3x-333x-33-5x-55-2x-22-|

"I've lost you..For good.."
3.
G|--------|
D|--------|
A|--------|
E|-3~-5~--|

"Your once gentle words.."   * Not 100%  sure 'bout this part
4.
G|---------------------------------------|
D|---------------------------------------|
A|-22-32--22-322--2-32--22-32------------|
E|---4------4------4------4---3~-5~------|

"You ever met me.."
5.
G|---------------------------------------|
D|---------------------------------------|
A|-22-32--22-322--2-32--22-32------------|
E|---4------4------4------4---3x--35x--5-|

Chorus
"I would have died for you.."
6.
G|---------------------------------------------------------|
D|---------------------------------------------------------|
A|-2222222222----------------------------------------------|
E|-----------2222222222-333x-333x-333x-333x-555x-555x-55555|

"As I thirst for vengeance..."
7.
G|-----4442------------------------------------------|
D|---------42----------------------------------------|
A|-2222----------------------------------------------|
E|-----------2222222222-333x-333x-333x-333x-555x-555x|

"Turn and walk away.."
8.
G|--------------|
D|--------------|
A|--------------|
E|-5555-3~---5~-|

"As you watched me break.."
9.
G|---------------------------------------|
D|---------------------------------------|
A|-22-32--22-322--2-32--22-32------------|
E|---4------4------4------4---3x--35x--5-|

Chorus
"I Would have died for you.."
10.
G|---------------------------------------------------------|
D|---------------------------------------------------------|
A|-2222222222----------------------------------------------|
E|-----------2222222222-333x-333x-333x-333x-555x-555x-55555|

"As I thirst for vengeance.."
11.
G|-----4442------------------------------------------------|
D|---------42----------------------------------------------|
A|-2222----------------------------------------------------|
E|-----------2222222222-333x-333x-333x-333x-555x-555x-55555|

"Turn and walk away.." 1:41 
12.
G|----------------------------------|
D|----------------------------------|
A|----------------------------------|
E|-3x-333x-33-5x-55-2x-22-22-2------|

"My revenge is made so clear.."
13.
G|------------------------------------------------|
D|------------------------------------------------|
A|-2x-222x-22-2x-222x-22--------------------------|
E|-----------------------3x-333x-33-5x-55-2x-22---|

"I will hunt you down.."
14.
G|------------------------------------------------|
D|------------------------------------------------|
A|-2x-222x-22-2x-222x-22--------------------------|
E|-----------------------3x-333x-33-5x-55-2x-22---|

"Remembering times.."  *Play really softly..
15.
G|---------------------------------4~-------------|
D|-----------------------------5~------5~---------|
A|-5~------2~--------------5~---------------------|
E|-----3~------3~-3-3-3-3-----------------3-3-3-3-|

"Why would you leave me to die..Turn..And walk away.."
16.
G|----------|
D|----------|
A|----------|
E|-3~--3~---|

"You're dead to mee"
17.
G|-----------------------|
D|-----------------------|
A|-----------------------|
E|-3x--35x--5-3x--35x--5-|

Chorus
"I would have died for you.."
18.
G|---------------------------------------------------------|
D|---------------------------------------------------------|
A|-2222222222----------------------------------------------|
E|-----------2222222222-333x-333x-333x-333x-555x-555x-55555|

"As I thirst for vengeance.."
19.
G|-----4442------------------------------------------------|
D|---------42----------------------------------------------|
A|-2222----------------------------------------------------|
E|-----------2222222222-333x-333x-333x-333x-555x-555x-55555|

Lyrics:

Eyes open to splattered blood
cold tile mocks me as I arise to find the knife is still in my back
shifting thoughts now slow with venom
take me as I stagger...is this all we were worth?
I've lost you for good without regret
your once gentle words are bleeding from my eyes
screams of terror now fill my every breath
I know you'll rue the day you ever met me
I'll lay you down to sleep when sorrow will bury the blade hilt deep

You know I would have died for you
now I'm forced to choose between a life of revenge or regret
as I thirst for vengeance, my heart struggles to come to grips
why would you leave me to die, turn, and walk away?

Alone, you stood so still as you watched me break
did it now kill you too? what has led you to the dagger my friend?

My revenge is made so clear midst cold tears left with the betrayed
I'll see that you never forget this
I will hunt you down like a dog
lies could never disguise what I saw behind me in you
remembering times we have shared...my friend for life is gone
we'll let the embers serve as the only memory of last days, so long ago

Why would you leave me to die, turn, and walk away?
Why would you leave me to die after you had buried the dagger hilt deep?

...You're dead to me...
I would have died for you
now I'm forced to choose between a life of revenge or regret
as I thirst for vengeance, my heart struggles to come to grips
why would you leave me to die, turn, and walk away?
...You're dead to me...

+++++++++++++++++++++++++++++++++++++++++

6. The Last Three Letters

Tuning: Drop D

"Dearest love I hope.." x2
1.
|-----------------------------------------------|
|-----------------------------------------------|
|-3333333x-5555555x-----------------------------|
|-------------------00000x-00000x-00000x-00000x-|

"Every single word secretly.." x2
2.
|-----------------------------------------------|
|-----------------------------------------------|
|-3333333333335555555555557777777777777777777777|
|-----------------------------------------------|

"Eyes forfeit sight to.."
3.
|-------------------------------------------------|
|-------------------------------------------------|
|-7777-5555-7777-5-3-2-7777-5555-22-33-44-55-44-22|
|-------------------------------------------------|

4.
|-------------------------------------------------|
|-------------------------------------------------|
|-7777-5555-7777-5-3-2-7777-5555-7777-5x----------|
|-------------------------------------------------|

Chorus
"Where the last words.." x2
5.
|-------------------------------------------------------|
|-------------------------------------------------------|
|-3333333333333333-555555555555555---------7~--------7-5|
|----------------------------------00x-00x---00x-00x----|

"It's me agaiin..." *Really soft
6.
|-------------------------------------|
|-------------------------------------|
|-3333333333333333-5555555555555555---|
|-------------------------------------|

"Is it me, or am I wrong.."
7.
|-------------------------------------|
|-----------------------------5-4-----|
|-7--77-7-77--3-5--7--77-7-77---------|
|-------------------------------------|

"To be concerned.. With the beauty of your pen.."
8.
|-------------------------------------|
|-------------------------------------|
|-3333333333333333-5555555555555555---|
|-------------------------------------|

"Ever cross my eyes again.."
9.
|-------------------------------------|
|-----------------------------5-4-----|
|-7--77-7-77--3-5--7--77-7-77---------|
|-------------------------------------|

"Was this all a lie.." * Soft!
10.
|-------------------|
|-------------------|
|--3~---5~---7~-----|
|-------------------|

"WHYYY"
11.
|-------------------|
|-5555-4444-2222-4x-|
|-------------------|
|-------------------|

Chorus
"Were the last words..." x2
12.
|------------------------------------------------------|
|------------------------------------------------------|
|-3333333333333333-555555555555555--------7~--------7-5|
|----------------------------------00x-00x---00x-00x---|

This is the part were the 2 guys talk about
crazy stuff lol

13.
|------------------------------------------------------------|
|------------------------------------------------------------|
|-------3~-5~----------3~-5~----------3~-5~---------3~-5~----|
|-0~-------------0~-----------000000---------00000-----------|

"If my words even reach you.." x4
14.
|---------------------------|
|---------------------------|
|--------------33-3333x-----|
|-00000-00-000--------------|

Chorus
"Were the last words.." x2
15.
|------------------------------------------------------|
|------------------------------------------------------|
|-3333333333333333-555555555555555--------7~--------7-5|
|----------------------------------00x-00x---00x-00x---|

Outro.
16.
|-------------------------------------------------|
|-------------------------------------------------|
|-7777-5555-7777-5-3-2-7777-5555-22-33-44-55-44-22|
|-------------------------------------------------|

Lyrics:

Dearest love,
I hope this message finds you well
as these endless thoughts drip from my soul
every single word secretly paints a fairytale
of when we will melt into one...

Eyes forfeit sight to the pain
cold scalpel's steel whispers tear at my very core
as I cling to memories of you
I am so scared...so scared...I need you with me

Were the last words that I wrote for you enough to tell you
that in my death the light that shone through my painful darkness
was a blinding vision of your eternal smile?

It's me again,
is it me or am I wrong to be concerned?
will the beauty of your pen ever cross my eyes again?
was this all a lie? why?

Make it stop, make this pounding in my head stop
fill my lungs with air, give me one more day to make her dreams come true
she understands right? that I'm not coming back...
she understands right? that I'm not coming back...
make it stop, make the pounding stop
I'm not coming back, I'm not coming back, I'm not coming back...
I don't know what happened...who would have thought my life would end up like this?
I didn't mean to hurt her, not hurt her like this...I can't feel my legs
I can't feel my legs and I can't even cry...how could somebody die like this?

If my words ever reach you I'll assume you don't care
never knew that silence could cut so deep or that you could twist the blade
now I curse all of your beautiful lies..
I love you and goodbye...

++++++++++++++++++++++++++++++++++++++++

7. Apology

Tuning: EADG

"You're Everything To Me" 0:44 x3
1.
G|----------------------------------|
D|----------------------------------|
A|----------------2222222-2222222---|
E|-333333-5555555-------------------|

2.
G|----------------------------------|
D|----------------------------------|
A|----------------2~----------------|
E|-333333-5555555-------------------|

"And to think..."
3.
G|----------------------------------|
D|----------------------------------|
A|----------------------------------|
E|-7/3~-5~----7~---7/3~-------------|

"This is the end!!"
4.
G|-------------|
D|-------------|
A|-------------|
E|-5555x-------|

Chorus
"I'll Loose Myself in Anguish.."
5.
G|----------------------------------|
D|----------------------------------|
A|----------------------------------|
E|-7777777-5555555-3333333-5555555--|

6.     x3
G|----------------------------------|
D|----------------------------------|
A|----------------2222222-2222222---|
E|-333333-5555555-------------------|

7.
G|----------------------------------|
D|----------------------------------|
A|----------------------------------|
E|-333333-5555555-5-2~-1/14---------|

Chorus
8.
G|----------------------------------|
D|----------------------------------|
A|----------------------------------|
E|-7777777-5555555-3333333-5555555--|

"One last false apology.."
9.
G|----------------------------------|
D|----------------------------------|
A|----------------------------------|
E|-7777777-5555555-2222222-3333333--|

Outro 2:43
10.
G|----------------|
D|-7/9~-9-7-------|
A|---------9-7----|
E|----------------|

"Urgency overwhelms.." 2:51
11.
G|----------------------------------|
D|----------------------------------|
A|-2222222-2222222------------------|
E|----------------3333333-5555555---|

"Must Restrain.."
12.
G|-------------------|
D|-------------------|
A|-------------------|
E|-7~----7/3~----5~--|

13. 3:08
G|----------------------------------------|
D|----------------------------------------|
A|----------------------------------------|
E|-3333-3333-3333-3333-5555-5555-5555-5555|

14.
G|-----------------------|
D|-----------------------|
A|-----------------------|
E|-2222-2222-2222-222----|

"I Refuse..."
15.
G|----------------------------------------|
D|----------------------------------------|
A|-2222-2222-2222-2222--------------------|
E|---------------------3333-3333-3333-3333|

16.
G|----------------------------------|
D|----------------------------------|
A|----------------------------------|
E|-5555-5555-5555-5555-222222222222-|

Chorus
17.
G|----------------------------------|
D|----------------------------------|
A|----------------------------------|
E|-7777777-5555555-3333333-5555555--|

18.
G|----------------------------------|
D|----------------------------------|
A|----------------------------------|
E|-7777777-5555555-2222222-3333333--|

"In My Mind.."
19.
G|--------------------------------------------|
D|--------------------------------------------|
A|-2222-2222-------------------------------2~-|
E|-----------3333-3333-5555-5555-2222-2222----|

Lyrics:

Sweat drips in my eyes
screams of lust we cry
tonight you are everything
you're everything...
you're everything to me no more
as I wake from this perfect dream
I'll escape from Eden's walls
can I not stay and live this lie?
go away and I'll think only of myself

And to think that you would not be scared
or surprised if I'd severed all these ties
this is the end...

I'll lose myself in anguish for tonight
help me get over you
one last false apology
help me get over you

I feel so numb to see this bitter end of beautiful illusions...
would this be the same?
broken pieces will not mend to save our past now...go away...

Now we must let go
urgency overwhelms me as I must restrain my flood of tears
I refuse to be slave to your false beauty again

+++++++++++++++++++++++++++++++++++

8. Tilting The Hourglass

Tuning: EADG

Intro.
1.
|--------------------|
|--------------------|
|--------------------|
|-55x--55x--11x--00x-|

2.
|--------------------------------------|
|--------------------------------------|
|--------------------------------------|
|-55x--55x--11x--00000000000000000000x-|

Verse
"But I'll never taste your lips.."
3.
|---------------------------------|
|---------------------------------|
|---------------------------------|
|-000-000-000-000-111-111-000-000-|

"As fate keeps me locked away.."
4.
|---------------------------------|
|---------------------------------|
|---------------------------------|
|-555-555-555-333-555-555-555-555-|

"I must close  my eyes.."
5.
|--------------------------------|
|--------------------------------|
|--------------------------------|
|-000-000-000-000-11111111-1x-0x-|

Pre-Chorus
"Emptiness has darkened my eyes.."
6.
|----------------|
|----------------|
|-0~-------------|
|-----3~--0~--1~-|

Chorus
"My iron eyes..."
7.
|------------------------------------------------------------------|
|------------------------------------------------------------------|
|-00000000000000002222222233333333---------------------------------|
|----------------------------------3333333333333333111111122222222-|

8.
|-----------------------|
|-----------------------|
|-33x---33x---33x---33x-|
|-----------------------|

9.
|---------------------------------|
|---------------------------------|
|---------------------------------|
|-0000000000000000111111111111111-|

Verse
"I see the fear growing.."
10.
|-----------------------------|
|-----------------------------|
|-----------------------------|
|------------------------555x-|

11.
|-------------------------------------------------------------|
|-------------------------------------------------------------|
|-------------------------------------------------------------|
|-333x-333x-333x-333x-000x-000x-000x-000x-111x-111x-111x-111x-|

"And when I'm gone.."
12.
|-----------------------------------------------------------------|
|-----------------------------------------------------------------|
|-----------------------------------------------------------------|
|-555555555555555555555555555555533333333333333333333333333333333-|

13.
|-----------------------------------------|
|-----------------------------------------|
|-----------------------------------------|
|-000x-000x-000x-000x-111x-111x-111x-111x-|

Pre-Chorus
"Emptiness has darkened my eyes.."
14.
|-------------------------------------------------------|
|--------------2-------------------------2~-------------|
|-00~-00~-00~---0---------------------------------------|
|----------------33~-33~-33~--00~-00~-00~---11~-11~-11~-|

"Emptiness has darkened my eyes.."
15.
|------------------------------------------------------------|
|------------------------------------------------------------|
|-00~-00~-00~---00-020---------------------------------------|
|----------------------33~-33~-33~--3353-531-00~-00~-00~--1~-|

16.
|--*12--Harmonic|
|---------------|
|---------------|
|---------------|

"My iron eyes.."
17.
|------------------------------------------------------------------|
|------------------------------------------------------------------|
|-00000000000000002222222233333333---------------------------------|
|----------------------------------3333333333333333111111133333333-|

18.
|-----------------------|
|-----------------------|
|-33x---33x---33x---33x-|
|-----------------------|

19.
|---------------------------------|
|---------------------------------|
|---------------------------------|
|-0000000000000000111111111111111-|

2:42
20.
|-----------------------------------------------------------------|
|-----------------------------------------------------------------|
|-----------------------------------------------------------------|
|-1~--000x--000x-000x-111x--111x-111x-55x-5x-55x-5x-55x-5x-55x-5x-|

21.
|-------------------------------------------------------------|
|-------------------------------------------------------------|
|-------------------------------------------------------------|
|-000x--000x-000x-111x--111x-111x-55x-5x-55x-5x-55x-5x-55x-5x-|

22.
|------------------------------------------------|
|------------------------------------------------|
|------------------------------------------------|
|-1-3-555x---1-3-555x---1-3-555x---1-3-555x---3x-|

"My iron eyes.."
23.
|------------------------------------------------------------------|
|------------------------------------------------------------------|
|-00000000000000002222222233333333---------------------------------|
|----------------------------------3333333333333333111111133333333-|

24.
|-----------------------|
|-----------------------|
|-33x---33x---33x---33x-|
|-----------------------|

25.
|-----------------------------------|
|-----------------------------------|
|-----------------------------------|
|-000000000000000011111111-1x-1x-1x-|

"My iron eyes.."
26.
|------------------------------------------------------------------|
|------------------------------------------------------------------|
|-00000000000000002222222233333333---------------------------------|
|----------------------------------3333333333333333111111133333333-|

27.
|-----------------------|
|-----------------------|
|-33x---33x---33x---33x-|
|-----------------------|

28.
|-----------------------------------|
|-----------------------------------|
|-----------------------------------|
|-000000000000000011111111-1x-1x-1x-|

Finishes with:
29.
|-----------------------|
|-----------------------|
|-----------------------|
|--555x-555x-555x--555x-|

Lyrics:

You take my breathe away...
but I'll never taste your lips
as fate keeps me locked away
I must close my eyes to see your face

Emptiness has darkened my eyes
as I hopelessly bed for my life to end
...tell me why...
my iron eyes tell the tale
heroes always pay in their blood
I can be only this

I see the fear growing in their lost eyes
my purpose is so clear...I am the ax
I am the ax and this is why I must not fear the end
and when I'm gone will you forget me?
pen wears its steady course across the page
resigned to it's designs to take the hive

Emptiness has darkened my eyes
as I hopelessly bed for my life to end
...tell me why...
I wish I could make you see, I wish I could make you see through the pain
through the end, I wish I could make you see the greater purpose that I have to serve...
no one else will fight...no-one else will fight...so I must
my iron eyes tell the tale
heroes always pay in their blood
I can be only this

I see the fear growing in there...

+++++++++++++++++++++++++++++++++++++++++

9. This Conversation Is Over

Tuning: EADG

Intro
1.
G|-------------------------------------|
D|--------------4644--------------4644-|
A|-44444444-4444-----00000000-0000-----|
E|-------------------------------------|

2.
G|-----------------------------------|
D|-----------------------------------|
A|-22222222-22222222-----------------|
E|-------------------4444-4~-4444-4~-|

Verse
""
3.
G|-----------------------------------------------|
D|----------------------------------------464----|
A|-000x----222x----444--444--2x--444--444--------|
E|-------------------------------------------44x-|

4.
G|-------------------------------------------|
D|-------------------------------------------|
A|-000x----222x----444--444--2x--444--444----|
E|----------------------------------------4x-|

Chorus
"Take everything away from me.."
5.
G|-----------------------------------------------------------------------|
D|-----------------------------------------------------------------------|
A|-44444444-44444444-00000000-00000000-22222222-22222222-----------------|--x2
E|-------------------------------------------------------4444-4~-4444-4~-|

Bridge
""
6.
G|------------------------------------|
D|------------------------------------|
A|-44x--44x-------------00x--00x--22x-|--x2
E|-----------4x-444x-4x---------------|

Verse
""
7.
G|-----------------------------------------------|
D|----------------------------------------464----|
A|-000x----222x----444--444--2x--444--444--------|
E|-------------------------------------------44x-|

"The only eyes you look inside.."
8.
G|-------9-----------------------------------|
D|------7-7----------------------------------|
A|-000x-----222x---444--444--2x--444--444----|
E|----------------------------------------4x-|

Pre-Chorus
"This conversation is over.."
9.
G|----------------------------------------|
D|----------------------------------------|
A|-0~----2~----44-44-44-22x--44-44-44-----|
E|------------------------------------44x-|

Chorus
"Take everything away from me.."
10.
G|-----------------------------------------------------------------------|
D|-----------------------------------------------------------------------|
A|-44444444-44444444-00000000-00000000-22222222-22222222-----------------|--x2
E|-------------------------------------------------------4444-4~-4444-4~-|

Outro
11.
G|--------------------------------------------------------------------|
D|--------------------------------------------------------------------|
A|-0-0-0-0-0-0-0-0--2-2-2-2-2-2-2-2---------------------------------2-|
E|-----------------------------------4-4-4-4-4-4-4-4--4-4-4-4-4-4-4---|

"I cant seem to believe.."
12.
G|------------------------------------------------------------------------|
D|------------------------------------------------------------------------|
A|-0-0-0-0-0-0-0-00-2-2-2-2-2-2-2-02-4-4-4-4-4-4-4-4--4-4-4-4-4-4-4-4-4\1-|
E|------------------------------------------------------------------------|

"I cant seem to believe.."
13.
G|-----------------------------------------------------------------------------------|
D|-----------------------------------------------------------------------------------|
A|-00x-000x-000x-000x-022x-222x-222x-222x-2------------------------------------------|
E|-----------------------------------------44x-444x-444x-444x--444x-444x-444x-444x-4-|

"I cant seem to believe.."
14.
G|--------------------------------------------------------------------|
D|--------------------------------------------------------------------|
A|-00x-000x-000x-000x-022x-222x-222x-222x-244444444-44444444-44444444-|
E|--------------------------------------------------------------------|

Chorus
"Take everything away from me.."
15.
G|-----------------------------------------------------------------------|
D|-----------------------------------------------------------------------|
A|-44444444-44444444-00000000-00000000-22222222-22222222-----------------|--x2
E|-------------------------------------------------------4444-4~-4444-4~-|

Lyrics:

Take everything away from me silent angel...

Apathy cries out from your lungs, indifference reeks of fiction
Time will tell how far you will go
I can't see why you'd run and hide excluding such complacence
As tears rain from bloodshot eyes

Take everything away from me silent angel
Leave me nothing to remind me of this time now lost

The air now reeks with the presence of your vile voice
As your smile masks the advance you keep
...I am not your trophy...
The air now reeks with the presence of your vile voice
As your smile masks the advance you keep
...I am not your trophy...

Please try to say more carefully you no longer need me
This back and forth is killing me
The only eyes you'll look into are those in your reflection
You are the means of my end

This conversation is over, it's over...
Your truth is a deception meant to poison me

I can't seem to believe you ever cared for me
...This conversation is over...
Your empty words now drift away as fragile whispers
I saw the day when the fire left your eyes, your tongue fell still
Your treason is silence...
Take everything away from me silent angel
Leave me nothing to remind me of this time now lost

++++++++++++++++++++++++++++++++++++++++++

10. Congratulations, I Hate You

Tuning: Drop D

"No one ever said that life was fair.." x2
1.
|------------------------------------------------------|
|------------------------------------------------------|
|-33333333333333333333333333---------------------------|
|---------------------------00000000000000000000000000-|

"Taste you vanity.." x2
2.
|------------------------------------|
|------------------------------------|
|-33-33-3-33-33-3--------------------|
|-----------------00-00-0-00-00-0----|

"You took them all.."
3.
|-----------------|
|-----------------|
|-----------------|
|-0~--0~--0~--0~--|

"Fantasize for tragedy.."
4.
|----------------------------|
|----------------------------|
|-2~--3~-33333333--33x--55x--|
|----------------------------|

Chorus
"Beg me ..."
5.
|-------------------------------------------------------|
|-------------------------------------------------------|
|-33333333333333------------22222222222-33333333-33x-55x|
|---------------000000000000----------------------------|

"Suffer alone.."
6.
|---| 
|---|
|---|
|-0~|

"I lust to see you.." x2
7.
|---------------------------------|
|---------------------------------|
|-3333x---2222x---7777x---5555x---|
|---------------------------------|

8.
|-----------------|
|-----------------|
|-33x-55x---------|
|-----------------|

Chorus
"Beg me ..."
9.
|-------------------------------------------------------|
|-------------------------------------------------------|
|-33333333333333------------22222222222-33333333-33x-55x|
|---------------000000000000----------------------------|

"Send stares.."
10.
|-----------------------------------------------------------------|
|-----------------------------------------------------------------|
|-3-33-3-3x-33-3--7x-77-7-7x-77-7-2x-22-2-2x-22-2-3x-33-3-33x-55x-|
|-----------------------------------------------------------------|

Bass solo...* ~x: Let ring then mute.. About x6
11.
|------------------------------------------------------|
|----------5~x------------------------5~x--------------|
|----33-22--------33-22-0~x-----33-22-------3-2x-2-0x--|
|-00-----------00------------00-----------0------------|

"Fantasize for tragedy...."
12.
|----------------------------|
|----------------------------|
|-2~--3~-33333333--33x--55x--|
|----------------------------|

Lyrics:

No one ever said that life was fair and Im not saying that it should be
so knowing that you are what you want to be and Im not comes as no surprise
but dont expect me to be happy for you
and dont smile at me and tell me things will work out for me too
I dont want your pity...I hate your pity

Taste your vanity and its sweet bitterness
as you hide behind your veil of my stolen hopes and lost dreams
...you took them all...
I watched you steal my thoughts and had to see you smile

As you build your dreams on my shattered hopes
Ill look back on a day once loved and fantasize for tragedy

Beg me to make this easier and listen to my hopeless cries

Suffer alone in emptiness
I lust to see you swallowed by the mess that you left in your wake
disgust lies deep within your empty gaze...

Beg me to make this easier and listen as my hopeless cries
send stares into your meaningless eyes

My envy cant describe how I loathe you for having all the stars
leaving my eyes to marvel the sky knowing it should be mine
yet its you I see wasting the dream that only I deserve
Ill tear off your face to see your smile.

+++++++++++++++++++++++++++++++++++++++++++++++

11. The Third Temptation Of Paris

No Bass

The horizon, now as dark as the crimes that brought them here,
is filled with my impending dread
my foolish actions will cost so many good men
Achilles has come...

A thousand sails approaching
sent here in her name to reclaim the one I stole
and destroy the walls of Troy

Desire leaves me numb to all the pain surrounding me
storms will arise to condemn me
I will not die before her eyes...
it ends tonight

Tragically I now must accept the penance I have earned
she is cursed and tonight we die
in the dawn of this, my end, I hold my sword true
I must let her go...

It ends tonight, I am alone
pain fills her eyes, I am alone

I must save my honor, I cannot let them win, the blood of many spills
sacred and profane is our love in death... 

++++++++++++++++++++++++++++++++++++++++++++++++

12. A Siren's Soliloquy

Tuning: EADG

Intro.
1.
G|---------------------------------------|
D|---------------------------------------|
A|-22222-55555---------------------------|
E|-------------33333-22~-----------------|

"Paralyzed by the beauty of those.."
2.
G|---------------------------------------|
D|------------------44-22-00-22-44-22-00-|
A|-2222222222222222----------------------|
E|---------------------------------------|

"Delicately drip from this angel.."
3.
G|---------------------------------------|
D|---------------------------------------|
A|---------------------------------------|
E|-333333333333333-2222222222222222------|

"Suddenly I fear the end of my.."
4.
G|---------------------------------------|
D|------------------44-22-00-22-44-22-00-|
A|-2222222222222222----------------------|
E|---------------------------------------|

"Once a warrior.."
5.
G|---------------------------------------|
D|---------------------------------------|
A|---------------------------------------|
E|-333333333333333-2222222222222222------|

"Left behind to fight ..."
6.
G|---------------------------------------|
D|---------------------------------------|
A|---------------------------------------|
E|-00000-0-0-22222-2-2-33333-3-3-5555555-|

"Hope will strike her down.."
7.
G|---------------------------------------|
D|---------------------------------------|
A|---------------------------------------|
E|-00000-0-0-22222-2-2-33333-3-3-5x------|

Chorus
"Suffering unseen now will be..."
8.
G|---------------------------------------------|
D|---------------------------------------------|
A|-55555555-55555555----------2x---2-0x--------|
E|-------------------5555555x-----2------2-5-3~|

"I am lost in her stare.."
9.
G|---------------------------------------------|
D|---------------------------------------------|
A|-55555555-55555555----------2x---2-0x--------|
E|-------------------5555555x-----2------2-5-3~|

"He.. Is..hers.." / "A soul now echoes.."
10.
G|--------------------|
D|--------------------|
A|-2x---2-0x----------|
E|-----2------2-5-3~--|

Outro.
11.
G|---------------------------------------|
D|---------------------------------------|
A|-22222-55555---------------------------|
E|-------------33333-22x-22x-------------|

"Beautifull whispers leave one so far.."
12.
G|---------------------------------------|
D|------------------44-22-00-22-44-22-00-|
A|-2222222222222222----------------------|
E|---------------------------------------|

"Of ageless struggle.."
13.
G|---------------------------------------|
D|---------------------------------------|
A|---------------------------------------|
E|-333333333333333-2222222222222222------|

"An epic tale of deceit.."
14.
G|---------------------------------------|
D|------------------44-22-00-22-44-22-00-|
A|-2222222222222222----------------------|
E|---------------------------------------|

"Her tounge screams for him.."
15.
G|---------------------------------------|
D|---------------------------------------|
A|---------------------------------------|
E|-333333333333333-2222222222222222------|

Chorus
"Sufferin unseen now will be.."
16.
G|---------------------------------------------|
D|---------------------------------------------|
A|-55555555-55555555----------2x---2-0x--------|
E|-------------------5555555x-----2------2-5-3~|

"I am lost in her stare."
17.
G|---------------------------------------------|
D|---------------------------------------------|
A|-55555555-55555555----------2x---2-0x--------|
E|-------------------5555555x-----2------2-5-3~|

"He..Is..Hers.." / "A soul now echoes with the torture of the sirens.."
18.
G|--------------------|
D|--------------------|
A|-2x---2-0x----------|
E|-----2------2-5-3~--|

"Set loose so long ago.."
19.
G|---------------------------------------|
D|---------------------------------------|
A|-2222-4444-5555-7545-------------------|
E|---------------------333333333333x-----|

"Phantoms which shall forever prey.."
20.
G|---------------------------------------|
D|-----------------------------5555x-----|
A|-2222-4444-5555-7545-------------------|
E|---------------------33333333----------|

"The grains of time.." x2
21.
G|---------------------------------------|
D|---------------------------------------|
A|-2x-22x-2x-222x------------------------|
E|----------------3x-33x-3x-333x---------|

"Left behind to fight.."
22.
G|---------------------------------------|
D|---------------------------------------|
A|---------------------------------------|
E|-00000-0-0-22222-2-2-33333-3-3-5555555-|

"Hope will strike her down.."
23.
G|---------------------------------------|
D|---------------------------------------|
A|---------------------------------------|
E|-00000-0-0-22222-2-2-33333-3-3-5x------|

Lyrics:

Paralyzed by the beauty of those words
that so delicately drip from this angel of untamed lust
suddenly I fear the end of my solitude
once a warrior, poetic shrieks now own my soul

Left behind to fight the ruthless pawns of Eris
hope will strike her down beneath the blade as she sings for him

Suffering unseen now will be left to burn in her stare
but he no longer fights the torture of her voice
so long forgotten, I am lost in her stare
mad so clear as she extracts her painful toll
a soul now echoes with the torture of the sirens
...he is hers...

Beautiful whispers leave one so far
chain these hands of ageless struggle
rid us of this beloved curse
an epic tale of deceit is given life once more on silver lips so spiteful
her tongue screams for him
rid us of this curse

Set loose so long ago by the foolish whim of Pandora
phantoms which shall forever prey on mankind's weakness
the grains of time hold no bearing to those eyes
in pale moonlight she sings to the haunted sea
vile notes seduce old Cerberus to slake unholy thirst

++++++++++++++++++++++++++++++++++++++++++

13. Nero's Decay

Tuning: EADG

Intro.
1.
G|----5-5----7-5h7p5-|
D|-333-3--555--------|
A|-------------------|
E|-------------------|

2.
G|-----------------------------------------------------------------------------|
D|-----------------------------------------------------------------------------|
A|-----------------------------------------------------------------------------|
E|-5-555555-55555-55555-5555-4-44444-44444-44444-4444-3-33333-33333-33333-3333-|

3.
G|---------------------------|
D|---------------------------|
A|---------------------------|
E|-1-11111-1111-3-33333-3333-|

4.
G|----------------------------------------------------------------------------|
D|----------------------------------------------------------------------------|
A|----------------------------------------------------------------------------|
E|-5-55555-55555-55555-5555-4-44444-44444-44444-4444-3-33333-33333-3333-3-3-3-|

5.
G|--------------------------------------|
D|-----------------------------4/7~-----|
A|--------------------------------------|
E|-1x-------3x------5~------------------|

Verse.
"Our empire.. has fallen! .." x2
6.
G|----------------------------------------------------------------|
D|----------------------------------------------------------------|
A|----------------------------------------------------------------|
E|-55555x--55555x--11111x--11111x--33333x--33333x--00000x--00000x-|

Chorus
"Tonight it's over.."
7.
G|-------------------------------------------|
D|-------------------------------------------|
A|----------------2~-3~----------------2223x-|
E|-1~---3~---5~---------1~---3~---5~---------|

"My flesh is burning from the embers.." x3
8.
G|---------------------------------|
D|---------------------------------|
A|---------------------------------|
E|-1111111-3333333-0000000-555-333-|

"I hope I never see the end.."
9.
G|------------------------------------------------------------|
D|------------------------------------------------------------|
A|------------------------------------------------------------|
E|-1~-1-1-1~/13~--3~-3-3-3~---1~-1-1-1~/13~--3~-3-3-3~--0~-0~-|

"Wind chokes on the ashes.."
10.
G|---------------------------|
D|---------------------------|
A|---------------------------|
E|-55555x-55555x-0000x-0000x-|

11.
G|--------------------------------------------------|
D|--------------------------------------------------|
A|----333-------------7~-----7x-8x-----7~-----7x-8x-|
E|-111---3333333--00x----00x-------00x----00x-------|

12.
G|---------------------------|
D|---------------------------|
A|---------------------------|
E|-55555x-55555x-0000x-0000x-|

13.
G|-----------------------------------------------|
D|-----------------------------------------------|
A|----333-------------7~-----7x-8x-----7~-----7x-|
E|-111---3333333--00x----00x-------00x----00x----|

Chorus
"Tonight its over.."
14.
G|-------------------------------------------|
D|-------------------------------------------|
A|----------------2~-3~----------------2223x-|
E|-1~---3~---5~---------1~---3~---5~---------|

"My flesh is burning from the embers.."  x3
15.
G|---------------------------------|
D|---------------------------------|
A|---------------------------------|
E|-1111111-3333333-0000000-555-333-|

"I hope I never see the end.."
16.
G|-----------------------------------------------------------------|
D|-----------------------------------------------------------------|
A|-----------------------------------------------------------------|
E|-1~-1-1-1~/13~--3~-3-3-3~---1~-1-1-1~/13~--3~-3-3-3~--0~-0~-3~-5~|

17.
G|-----------------------------------------------------------------------------|
D|-----------------------------------------------------------------------------|
A|-----------------------------------------------------------------------------|
E|-5-555555-55555-55555-5555-4-44444-44444-44444-4444-3-33333-33333-33333-3333-|

18.
G|---------------------------|
D|---------------------------|
A|---------------------------|
E|-1-11111-1111-3-33333-3333-|

19.
G|----------------------------------------------------------------------------|
D|----------------------------------------------------------------------------|
A|----------------------------------------------------------------------------|
E|-5-55555-55555-55555-5555-4-44444-44444-44444-4444-3-33333-33333-3333-3-3-3-|

20.
G|---------------------|
D|---------------------|
A|---------------------|
E|-1x-------3x------5~-|

21.
G|-----------------------------------------------------------------------------|
D|-----------------------------------------------------------------------------|
A|-----------------------------------------------------------------------------|
E|-5-555555-55555-55555-5555-4-44444-44444-44444-4444-3-33333-33333-33333-3333-|

22.
G|---------------------------|
D|---------------------------|
A|---------------------------|
E|-1-11111-1111-3-33333-3333-|

"At long last we will fall.."
23.
G|--------------------------------------|
D|--------------------------------------|
A|--------------------------------------|
E|-5~---5~---5~---5~----5x--------------|

Lyrics:

Our empire has fallen
the columns came crashing down
faster that children could outrun the shadows
drunk with hysteria the survivors are running for their lives
as precious dreams erupt before their very eyes

Tonight, it's over...at long last we will fall
ruins will fight in our stead

My flesh is burning from the embers
but still the brilliant tale of our utopia survives
tonight her beautiful exterior may crash and burn to ash
but the fight for her honor will rage on
I hope I never see the end
I hope I never have to live without her comfort
but for now she dies... oh Rome! so full of majesty, you're gone...

Wind chokes on the ashes as acrid smoke strangles the sun
their jealous arrows ran, hollow drums pound at the gates
breaking the din of screams
our feeble offerings to forgotten Gods are left to rot in temples of their lust
as they lay forth their plans to destroy our pride, our home

...Beg the flames for our mercy...
these aged walls have seen too much
to forget the past in the face of this final trial
watch her crumble so true as mayhem cuts her down
let them have our treasure, her voice lives on
let them take our city for her splendor lives on

...At long last we will fall... 

+++++++++++++++++++++++++++++++++++++++++

That was it
Hope you enjoyed and please rate :D

+++++++++++++++++++++++++++++++++
| RaiLeff                       |
| Underground__Dora@Hotmail.Com |
+++++++++++++++++++++++++++++++++

            
            
Suggest correction
Creating personal tab
Creating personal tab
You can edit any tab online and save it as your Personal.

You can edit, replace or remove any tab part or add personal notes – all changes will be seen only by you.

Personal tabs can be accessed anytime from any device, even offline.
Learn more »
comments
print report bad tab
7 comments total. Showing first comments.
0 reply
thatonebassist 10 Aug 10, 2008 09:05 AM

wow thanks! these tabs are great!

0 reply
andres1 106 Apr 18, 2009 08:49 PM

bass tabs are kinda useless
in most songs u can barely hear it

0 reply
RaiLeff 12,922 May 17, 2009 04:01 PM

ok your comment was totally helpful, I'll keep it in mind...

as...

guest
You may want to rate the tab now too:
select rating
Wanna post a correction for this tab? Suggest correction