Oops, an error
Loading. Please wait.

Pathetic Ordinary bass

version 1
version 1

Whole song

Interactive

by Alesana
3,467 views 1 this week
no commentswrite comment
1 2 3 4 5
x 5
add to favorites
×
Save as Personal and add changes to this tab that will be seen only by you. Learn more ›
×
You can save this tab as Personal to edit and correct it or add notes. All changes will be seen only by you. Learn more »
launch autoscroll
font size
0
reset
guitar tuner
edit
Autoscroll
slow
fast
+/-
esc
set tempo
stop
Author
++++++++++++++++++++++++++++++
|Alesana- Pathetic, Ordinary |
++++++++++++++++++++++++++++++

Tuning: EADG

Intro.
1.
G|----------------------------------|
D|----------------------------------|
A|-5/7-5-----------2~----3~----5~---|
E|------753-0~----------------------|

2.
G|----------------------------------|
D|----------------------------------|
A|------2~----3~----5-5-5-5-5-55555-|
E|-0~-------------------------------|

Verse
"In dreams, I see her.."
3.
G|-----------------------------------------------|
D|-----------------------------------------------|
A|------------------------2222222x-22-2-2-22-2-2-|
E|-0000000x-00-0-0-00-0-0------------------------|

4.
G|-----------------------------------------------|
D|-----------------------------------------------|
A|-3333333x-33-3-3-33-3-3-5555555x-55-5-5-55-5-5-|
E|-----------------------------------------------|

5.
G|-----------------------------------------------|
D|-----------------------------------------------|
A|------------------------2222222x-22-2-2-22-2-2-|
E|-0000000x-00-0-0-00-0-0------------------------|

6.
G|------------------------------------------|
D|------------------------------------------|
A|-3333333x-33-3-3-33-3-3-5555555x-5555555x-|
E|------------------------------------------|

Pre-Chorus
"As her selfish words rain.."
7.
G|---------------------------------|
D|---------------------------------|
A|-2~----2~----2222222222222222222-|
E|---------------------------------|

Chorus
"Frigid air leaves me breathless.."
8.
G|-------------------------------------------------------------|
D|-------------------------------------------------------------|
A|-------------------------------------------------------------|
E|-333333333333333333333333-33x-33x-31111111111111111111111111-|

"As I try to scream for her.."
9.
G|-------------------------------------------------|
D|-------------------------------------------------|
A|-1-1x-1-1x-2~----2~----2~-22x-22x000000000000000-|
E|-------------------------------------------------|

Outro.
"On my knees, I cry... Listen to ME!!!!!"
10.
G|-----------------------------------|
D|-----------------------------------|
A|-----------------------------------|
E|-12//5555555555555555x-0x-0x-0x-0x-|

"I'm broken by her silence.."
11.
G|--------------------------------------------------|
D|--------------------------------------------------|
A|--------------------------22222222222222222222222-|
E|-000000000000000000000000-------------------------|

12.
G|--------------------------------------------------|
D|--------------------------------------------------|
A|-333333333333333333333333-55555555555555555555555-|
E|--------------------------------------------------|

"My wingless angel..."
13.
G|--------------------------------------------------------------------|
D|--------------------------------------------------------------------|
A|--------------------2222x-222-2222x----3333x-333-3333x----5555x-555-|
E|-0000x-000-0000x----------------------------------------------------|

Bass Solo
14.
G|-----------------------------------------------------------|
D|----------5h7p5-----------------------------5~-5-5-7-5-----|
A|-2~-2-2-2-------5~-5-5-5-5h7p5----------3-5------------7-5-|
E|-------------------------------3~-3-3-3--------------------|

15.
G|----------------------------------|
D|----------5h7p5-------------------|
A|-2~-2-2-2-------5~-5-5-5-5h7p5----|
E|-------------------------------3~-|

Chorus x2
Outro

3:07
16.
G|-------------------------------------|
D|-------------------------------------|
A|----------------------2~-----333-222-|
E|-0~-----3~-----5~--------------------|

17.
G|--------------------------------|
D|--------------------------------|
A|--------------------------------|
E|-00000x------00000x------00000x-|

18.
G|------------------------2-3-5-7-|
D|----------------2-3-4-5---------|
A|-3-2-0--------------------------|
E|-------0-3~-5~------------------|

19.
G|------------------------------------------------------|
D|------------------------------------------------------|
A|----------2-2-2-2-2-2-2-2-2-222222222222222222222222x-|
E|-3~---5~----------------------------------------------|

Hope you enjoy ;)
Please rate :D!

+++++++++++++++++++++

RaiLeff
Underground__Dora@hotmail.com

            
            
Suggest correction
Creating personal tab
Creating personal tab
You can edit any tab online and save it as your Personal.

You can edit, replace or remove any tab part or add personal notes – all changes will be seen only by you.

Personal tabs can be accessed anytime from any device, even offline.
Learn more »
comments
print report bad tab
guest
You may want to rate the tab now too:
select rating
Wanna post a correction for this tab? Suggest correction