Oops, an error
Loading. Please wait.

The Lover bass

version 1
version 1

Whole song

Interactive

by Alesana
1,776 views 1 this week
no commentswrite comment
1 2 3 4 5
3 more votes to show rating
add to favorites
×
Save as Personal and add changes to this tab that will be seen only by you. Learn more ›
×
You can save this tab as Personal to edit and correct it or add notes. All changes will be seen only by you. Learn more »
launch autoscroll
font size
0
reset
guitar tuner
edit
Autoscroll
slow
fast
+/-
esc
set tempo
stop
Author
++++++++++++++++++++++
| Alesana- The Lover |
++++++++++++++++++++++


"Just a scent of her skin unlocks forbidden memories..."

Tuning: Standard EADG


Verse
"Is it her? Could it be?"
1.
G|-----------------------------------------------------------------------------------------|
D|-----------------------------------------------------------------------------------------|
A|-222222-222222-----------------------------------------------------------0~------0~------|--x2
E|---------------333333-333333-000000-000000-222222-222222-3~------3~----------------------|

Pre-Chorus
"Dead girls dont just appear..."
2.
G|-------------------------------------------------------------------------------|
D|--------------------------------------------5---5~-------5~---------7--7~------|
A|-22x----22x----22x-22x----22x----22x----------5------------00x-------7---------|
E|-------------------------------------33x--------------33-----------------------|

Chorus
"Please dont hate me..."
3.
G|------------------------------------------------------------------------|
D|----------------------------2-0-0-2-------------------------------------|
A|------------------------------------22222222-22222222-22222222-22222222-|
E|-33333333-33333333-33333333---------------------------------------------|

"Such a pretty girl screams to me..."
4.
G|------------------------------------------------------------------------|
D|----------------------------2-0-0-2-------------------------------------|
A|------------------------------------00000000-00000000-00000000-00000000-|
E|-33333333-33333333-33333333---------------------------------------------|

Outro
"What if my heart breaks again..."
5.
G|------------------------------|
D|------------------------------|
A|-2x----2x----2x----2/9~-7~-5~-|
E|------------------------------|

Verse
"Just a scent of her skin..."
6.
G|-----------------------------------------------------------------------------------------|
D|-----------------------------------------------------------------------------------------|
A|-222222-222222-----------------------------------------------------------0~------0~------|
E|---------------333333-333333-000000-000000-222222-222222-3~------3~----------------------|

Pre-Chorus
"Dead girls dont just appear..."
7.
G|-------------------------------------------------------------------------------|
D|--------------------------------------------5---5~-------5~---------7--7~------|
A|-22x----22x----22x-22x----22x----22x----------5------------00x-------7---------|
E|-------------------------------------33x--------------33-----------------------|

Chorus
"Please dont hate me..."
8.
G|------------------------------------------------------------------------|
D|----------------------------2-0-0-2-------------------------------------|
A|------------------------------------22222222-22222222-22222222-22222222-|
E|-33333333-33333333-33333333---------------------------------------------|

"Such a pretty girl screams to me..."
9.
G|------------------------------------------------------------------------|
D|----------------------------2-0-0-2-------------------------------------|
A|------------------------------------00000000-00000000-00000000-00000000-|
E|-33333333-33333333-33333333---------------------------------------------|

Bridge
"I'll be your anchor..."
10.
G|-------------------------------------------------------------------|
D|----------------------------------------------------------4~-2~-0~-|
A|-------------------------------------22x----22x-22x----22----------|
E|-33333333-33333333-22222222-22222222-------------------------------|

"I'll be your anchor..."
11.
G|---------------------------------------------------------------------------------|
D|---------------------------------------------------------------------------------|
A|-------------------------------------22x----22x-22x----22x-22x----22x-22x----22x-|
E|-33333333-33333333-22222222-22222222---------------------------------------------|

Chorus
"Please dont hate me..."
12.
G|------------------------------------------------------------------------|
D|----------------------------2-0-0-2-------------------------------------|
A|------------------------------------22222222-22222222-22222222-22222222-|
E|-33333333-33333333-33333333---------------------------------------------|

"Such a pretty girl screams to me..."
13.
G|------------------------------------------------------------------------|
D|----------------------------2-0-0-2-------------------------------------|
A|------------------------------------00000000-00000000-00000000-00000000-|
E|-33333333-33333333-33333333---------------------------------------------|

Outro
"I'll never let you down..."
14.
G|----------------------------------------------------------------------|
D|--------------------------5h777-5h77----------------------------------|
A|--------------5h77-0-0000------------2-2222-22222-2222-2222-22--------|--x2
E|-3-3333-33333-------------------------------------------------222-222-|

"Angel..."
15.
G|-----------|
D|-----------|
A|-----------|
E|-3x--------|



Lyrics:

Is it her? Could it be? Should my eyes believe what they see?
If you are who I think you are
I might lose my mind.
Just a kiss from her lips
and I would simply float away.
The way her hips sway back and forth,
I've got butterflies.

Dead girls don't just appear out of thin air.
But I am victim to her sinister stare.

Please don't hate me for what I've done
Run away with me, I'll be everything that you need.
Such a pretty girl screams to me.
"Take my hand, take my breath away..."
What if my heart breaks again? 

Just a scent, of her skin
Unlocks forbidden memories.
The slightest gaze of fragile hand
I've got butterflies.

I'll be your anchor, I'll be your lover.
And then your heart is filled with doubt
I'll bear my soul to you belle!

I can't loose you again.
I'm nothing without you.
I'll never let you down,
Angel 



+++++++++++++++++++++++++++++++++
| RaiLeff                       |
| Underground__Dora@Hotmail.Com |
+++++++++++++++++++++++++++++++++

            
            
Suggest correction
Creating personal tab
Creating personal tab
You can edit any tab online and save it as your Personal.

You can edit, replace or remove any tab part or add personal notes – all changes will be seen only by you.

Personal tabs can be accessed anytime from any device, even offline.
Learn more »
Give kudos to tab author, rate the tab!
1 2 3 4 5
comments
print report bad tab
guest
You may want to rate the tab now too:
select rating
Wanna post a correction for this tab? Suggest correction