Oops, an error
Loading. Please wait.

The Murderer bass

version 1
version 1

Whole song

Interactive

by Alesana
2,881 views 1 this week
no commentswrite comment
1 2 3 4 5
2 more votes to show rating
add to favorites
×
Save as Personal and add changes to this tab that will be seen only by you. Learn more ›
×
You can save this tab as Personal to edit and correct it or add notes. All changes will be seen only by you. Learn more »
launch autoscroll
font size
0
reset
guitar tuner
edit
Autoscroll
slow
fast
+/-
esc
set tempo
stop
+++++++++++++++++++++++++
| Alesana- The Murderer |
+++++++++++++++++++++++++


"Oh how blood turns me on..."

Tuning: Drop D (DADG)


Intro
"Is it about time?"
1.
G|---------------------------------------------------------------------------------|
D|---------------------------------------------------------------------------------|
A|---------------------------------------------------------------------------------|
D|-0-0-00-0-00x--------0-0-00-0-00x--------0-0-00-0-00x--------0-0-00-0-00x--------|

"Are you ready to run?"
2.
G|----------------------------------|
D|----------------------------------|
A|----------------------------------|
D|-0~-------------------------------|

"Are you ready to run?"
3.
G|-------------------------------------------------------|
D|-------------------------------------------------------|
A|-------------------------------------------------------|
D|-0x--0x--0x-0x--0x--------0x--0x--0x-0x----8~-7~-5~-7~-|

Verse
"Please dont get up..."
4.
G|----------------------------------------------------------------------------------|
D|----------------------------------------------------------------------------------|
A|----------------------------------------------------------------------------------|
D|-0000x--00x--0000x--0000x-0x-8~-7~-5~-7~--0000x--00x--0000x--0000x-0x-8~-7~-5~-7~-|

"My sweet little sheep..."
5.
G|--------------------------------------------------------------------------------------|
D|--------------------------------------------------------------------------------------|
A|--------------------------------------------------------------------------------------|
D|-00000x--00x--0000x--00000x-0x-8~-7~-5~-7~--00000x--00x--0000x--00000x-0x-8~-7~-5~-7~-|

Pre-Chorus
"You should know Im dangerous..."
6.
G|--------------------------2h3p2-0---------------------------------|
D|----------------------------------3~--5~----5---------------------|
A|-1x--1x--3x----0x--0x--1x---------------------3~----0x--0x--5x----|
D|------------------------------------------------------------------|

Chorus
"Is this what we pictured..."
7.
G|-------------------------------------------------------------------------|
D|-------------------------------------------------------------------------|
A|----------------------------------1-0-0000000-00000-3-1-1111-5-3-3333333-|--x2
D|-00000000-00000-8-5-5555555-55555----------------------------------------|

Outro
"Annabel, look what you've started..."
8.
G|---------------------|
D|---------------------|
A|---------------------|
D|-0~--------0~--------|

Verse
"The knife slides down..."
9.
G|-------------------------------------------------------------------|
D|-------------------------3h5p3~-2h3p2~-----------------------------|
A|-------------------------------------------------------3~----0~----|--x2
D|-0x--0x--0x--0000-0x--0x----------------0x--0x--0x-000-------------|

Pre-Chorus
"You should know Im dangerous..."
10.
G|--------------------------2h3p2-0---------------------------------|
D|----------------------------------3~--5~----5---------------------|
A|-1x--1x--3x----0x--0x--1x---------------------3~----0x--0x--5x----|
D|------------------------------------------------------------------|

Chorus
"Is this what we pictured..."
11.
G|-------------------------------------------------------------------------|
D|-------------------------------------------------------------------------|
A|----------------------------------1-0-0000000-00000-3-1-1111-5-3-3333333-|--x2
D|-00000000-00000-8-5-5555555-55555----------------------------------------|

Outro
"Annabel, look what you've started..."
12.
G|---------------------|
D|---------------------|
A|---------------------|
D|-0~--------0~--------|

"Are you ready to run..."
13.
G|---------------------------------------------|
D|---------------------------------------------|
A|---------------------------------------------|
D|-0x----0x-00x----0000x----0x-00x---0~--------|

"Are you ready to run..."
14.
G|-------------------------------------------|
D|-------------------------------------------|
A|-------------------------------------------|
D|-0~----0-00~----0000~----0-00~---0~--------|

Bridge
"Will they scream..."
15.
G|---------------------------------------------------------------|
D|---------------------------------------------------------------|
A|---------------------------------------------------------------|
D|-0000x--000000x-00000x--000000x-0000x--000000x-00000x--000000x-|

"Will they beg..."
16.
G|---------------------------------------------------------------|
D|---------------------------------------------------------------|
A|---------------------------------------------------------------|
D|-0000x--000000x-00000x--000000x-0000x--000000x-00000x--0x------|

"Are you ready to die?"
17.
G|---------------------------------------------------------------|
D|---------------------------------------------------------------|
A|---------------------------------------------------------------|--x2
D|-0000x--000000x-00000x--000000x-0000x--000000x-00000x--000000x-|

"Im so glad that all of you came..."
18.
G|-----------------------------------------------------|
D|-----------------------7~-5~-3~-2~-0~----------------|
A|-----------------------------------------------------|
D|-0x--0x--0x-0x--0x--0x-------------------------------|

3:35
19.
G|-------------------------------------------------------------------------|
D|-------------------------------------------------------------------------|
A|-11111111-11111111-33333333-33333333-00000000-00000000-5555x----3333x----|
D|-------------------------------------------------------------------------|

"Looking in I see a lonely man..."
20.
G|----------------------------------------------------|
D|----------------------------------------------------|
A|-1~----1-1~-3~----3-3~-0~----0-0~-5555x----3333x----|
D|----------------------------------------------------|

Pre-Chorus
"Oh how blood turns me on..."
21.
G|-----------------------------|
D|-----------------------------|
A|-1x--1x--3x----0x--0x--5x----|
D|-----------------------------|

Chorus
"Is this what we pictured..."
22.
G|-------------------------------------------------------------------------|
D|-------------------------------------------------------------------------|
A|----------------------------------1-0-0000000-00000-3-1-1111-5-3-3333333-|--x2
D|-00000000-00000-8-5-5555555-55555----------------------------------------|

Outro
"Annabel, look what you've started..."
23.
G|------------------------|
D|------------------------|
A|------------------------|
D|-0~--------0~--------0x-|


Lyrics:

It is about time?
Oh yes it is, it really is!
Let's get this party started!
My hands are shaking
Just take a drink, steady your nerves.
Let's get this party started!

Are you ready to run?
I've been waiting patiently for this
Are you ready to die?
Cause lately it seems I'm going insane!

Please don't get up!
Oh no, you're fine right there!
Just don't mind me as I take you all in!
So drink 'em up, oh yes just slam 'em down!
Have one on me as I lock you all in!
My sweet little sheep your wolf has come

You should know I'm dangerous.
My thirst for blood turns me on
How sweet

Is this what we pictured the night that we said, "you're the one"?
I'm going crazy without you.
It's hard to believe but I'm having fun.

Annabel, look what you've started!

The knife slides down to the tip of my tongue.
I'm finding pleasure in watching you writhe.
I lean in just to lick the sweat off your face.
I taste the reverence dripping down my throat.

Are you ready to die?
There is definitely something wrong!
Will they scream? Will they cry?
Will they beg as they die or have to accept that this is the end?

Are you ready to die? 
I'm so glad that all of you came!
Looking in I see a lonely man etching tallies into the bar.
Looking on I see a desperate man repeating something on the floor.


+++++++++++++++++++++++++++++++++
| RaiLeff                       |
| Underground__Dora@Hotmail.Com |
+++++++++++++++++++++++++++++++++

            
            
Suggest correction
Creating personal tab
Creating personal tab
You can edit any tab online and save it as your Personal.

You can edit, replace or remove any tab part or add personal notes – all changes will be seen only by you.

Personal tabs can be accessed anytime from any device, even offline.
Learn more »
Give kudos to tab author, rate the tab!
1 2 3 4 5
comments
print report bad tab
guest
You may want to rate the tab now too:
select rating
Wanna post a correction for this tab? Suggest correction