Oops, an error
Loading. Please wait.

This Conversation Is Over tab

version 3
version 3

Whole song

Interactive

by Alesana
30,257 views 3 this week
14 commentsread comments
1 2 3 4 5
x 30
add to favorites
×
Save as Personal and add changes to this tab that will be seen only by you. Learn more ›
×
You can save this tab as Personal to edit and correct it or add notes. All changes will be seen only by you. Learn more »
launch autoscroll
font size
0
reset
how to read this tab
guitar tuner
edit
Autoscroll
slow
fast
+/-
esc
set tempo
stop
Author
Alesana   : This Coversation is Over
Tabbed by : Hariz Abdul Hadi (twitter.com/CubaTryTest)
Tunning   : Standard(EAEGBe)

!-----------------------------------------------------------------!
| First and foremost, this isn't the original tab.                |
| Tabbed this all by myself, with some reference on video covers, |
| and based on what I listened.                                   |
|                                                                 |
| Basically, this tab is ear-transcribed.                         |
|-----------------------------------------------------------------|
| I don't know why 'freakywi' tabbed this half-step down,         |
| when you can easily play this song in:                          |
| - Dropped D or                                                  |
| - Standard tuning.                                              |
| Guess that's how he likes it.                                   |
|-----------------------------------------------------------------|
| Anyways, for those who are lazy to tune their guitar,           |
| I tabbed this using standard tuning.                            |
|                                                                 |
| Tho, dropped D would be better.                                 |
| Again, this is for those who are too lazy to tune their guitar. |
| Like me ;P                                                      |
|-----------------------------------------------------------------|
| It's 92.6% accurate, not sure about some parts.                 |
| So help me!                                                 |
|                                                                 |
| Check bottom for updates.                                       |
!-----------------------------------------------------------------!



[INTRO]

Guitar 1
e|----------------------------------------------------------------------|
B|----------------------------------------------------------------------|
G|-6666666666666666-----------------------------------------------------|
D|-6666666666666666—7777777777777777-9999999999999999-----------------6*|
A|-4444444444444444-7777777777777777-9999999999999999-----------------6*|
E|------------------5555555555555555-7777777777777777-----------------4*|
PM ................ ................ ................

Guitar 2
e|-----------------( fades in... )-0-4-0-2-0-4-0-2-0-4-0-2-0-4-0-2-0-(0)|
A|--------------------------------------------------------------------4*|
D|--------------------------------------------------------------------4*|
G|----------------------------------------------------------------------|
B|----------------------------------------------------------------------|
E|----------------------------------------------------------------------|



[MAIN RIFF/CHORUS]

Guitar 1
e|-------------------------------------------------------------------|
B|-------------------------------------------------------------------|
G|-6666666666666666--------------------------------------------------|
D|-6666666666666666—7777777777777777-9999999999999999-666-66-666-66--|
A|-4444444444444444-7777777777777777-9999999999999999-666-66-666-66--|
E|------------------5555555555555555-7777777777777777-444-44-444-44--|
PM                                                        .      .

Guitar 2
e|---------------------------------|---------------------------------|
B|-5-0-4-0-5-0-4-0-5-0-4-0-5-0-4-0-|-5-0-7-0-5-0-7-0-5-0-7-0-5-0-7-0-|
G|---------------------------------|---------------------------------|
D|---------------------------------|---------------------------------|
A|---------------------------------|---------------------------------|
E|---------------------------------|---------------------------------|

e|---------------------------------|---------------------------------|
A|-5-0-4-0-5-0-4-0-5-0-4-0-5-0-4-0-|-5-4-5-7-5--5-4-5---4------------|
D|---------------------------------|------------------4--------------|
G|---------------------------------|---------------------------------|
B|---------------------------------|---------------------------------|
E|---------------------------------|---------------------------------|

Guitar 3
e|---------------------------------|-------7------------7------------|
A|---------------------------------|-9-7-9---9--9-7-9----------------|
D|-13------14-----13----/16/11-----|---------------------------------|
G|----x16-----x8-----x4--------x8--|---------------------------------|
B|-11------12-----11----/14/-9-----|---------------------------------|
E|---------------------------------|---------------------------------|


 
[VERSE 1] x2

Guitar 1
e|----------------------------------------------------------------|
A|----------------------------------------------------------------|
D|------------------4444------------666-666-4-----666-666---------|
G|-7777-------------4444------------666-666-4-----666-666-6-------|
B|-7777-------------2222------------444-444-2-----444-444-6-------|
E|-5555---------------------------------------------------4-------|
PM                                  ... ...       ... ...


Guitar 2
e|-------------------------------0------------7-------------7---|
A|------5-45-5h75-7--------4-5-7-5---4547--454-57--4547--454-57-|1st Time
D|----------------9------4----------4-----4-------4-----4-------|
G|--------------------------------------------------------------|
B|--------------------------------------------------------------|
E|--------------------------------------------------------------|
PM                       . . . .    ....  ....    .... ....

(Guitar 3 plays this at the end on the 2nd time)
e|---------------------------------------------------------7-7/9-|2nd time
A|------------------------------------------------------454------|
D|-----------------------------------------------------4---------|
PM                                                     ....



[CHORUS] x2

Guitar 1
e|-------------------------------------------------------------------|
B|-------------------------------------------------------------------|
G|-6666666666666666--------------------------------------------------|
D|-6666666666666666—7777777777777777-9999999999999999-666-66-666-66--|
A|-4444444444444444-7777777777777777-9999999999999999-666-66-666-66--|
E|------------------5555555555555555-7777777777777777-444-44-444-44--|

Guitar 2
e|---------------------------------|---------------------------------|
B|-5-0-4-0-5-0-4-0-5-0-4-0-5-0-4-0-|-5-0-7-0-5-0-7-0-5-0-7-0-5-0-7-0-|
G|---------------------------------|---------------------------------|
D|---------------------------------|---------------------------------|
A|---------------------------------|---------------------------------|
E|---------------------------------|---------------------------------|

e|---------------------------------|---------------------------------|
A|-5-0-4-0-5-0-4-0-5-0-4-0-5-0-4-0-|-5-4-5-7-5--5-4-5---4------------|
D|---------------------------------|------------------4--------------|
G|---------------------------------|---------------------------------|
B|---------------------------------|---------------------------------|
E|---------------------------------|---------------------------------|

Guitar 3
e|---------------------------------|-------7------------7------------|
A|---------------------------------|-9-7-9---9--9-7-9----------------|
D|-13------14-----13----/16/11-----|---------------------------------|
G|----x16-----x8-----x4--------x8--|---------------------------------|
B|-11------12-----11----/14/-9-----|---------------------------------|
E|---------------------------------|---------------------------------|


 
[VERSE 2] x2

Guitar 1
|----------------|---------|------------------|
|----------------|---------|------------------|
|--66-----66-----|---------|---------------44-|
|--66-----66-----|-6-666-6-|-77-----77-----44-|
|--44-----44-----|-6-666-6-|-77-----77-----22-|
|----------------|-4-444-4-|-55-----55--------|
PM                                         ..

Guitar 2 and 3
e|----7----------|---------|------------------|---------------|
A|------9----9-7-|---------|----9-7-------7---|-5-4-5-5/7-5-4-|
D|---------------|---------|-----------9------|---------------|
G|---------------|---------|------------------|---------------|
B|---------------|---------|------------------|---------------|
E|---------------|---------|------------------|---------------|

[VERSE 3] x2
                         
Guitar 1
e|----------------------------------------------------------------|
A|----------------------------------------------------------------|
D|------------------4444------------666-666-4-----666-666---------|
G|-7777-------------4444------------666-666-4-----666-666-6-------|
B|-7777-------------2222------------444-444-2-----444-444-6-------|
E|-5555---------------------------------------------------4-------|
PM                                  ... ...       ... ...


Guitar 2
e|-------------------------------0------------7-------------7---|
A|------5-45-5h75-7--------4-5-7-5---4547--454-57--4547--454-57-|1st Time
D|----------------9------4----------4-----4-------4-----4-------|
G|--------------------------------------------------------------|
B|--------------------------------------------------------------|
E|--------------------------------------------------------------|
PM                       . . . .    ....  ....    .... ....



“This conversation is over...”
e|--------------------------------------|
A|--------------------------------------|
D|-----4*--66-66-66-66-4-66-66-66-66----|
G|-7*--4*--66-66-66-66-4-66-66-66-66-77-|
B|-7*--2*--44-44-44-44-2—44-44-44-44-77-|
E|-5*--------------------------------55-|



Repeat [CHORUS]



[BRIDGE]

Guitar 2 (Repeated several times)
|--------------------------------------|x2
|-10---10---10---10---9---9---9---9----|
|----9----9----9----9---9---9---9---9--|
|--------------------------------------|
|--------------------------------------|
|--------------------------------------|

|--------------------------------------|x2
|-12---10---9---12---10---9---10---9---|
|----9----9---9----9----9---9----9-—-9-|
|--------------------------------------|
|--------------------------------------|
|--------------------------------------|

Guitar 1
e|----------------------------------------------------------------|
A|----------------------------------------------------------------|
D|----------------44-444-444-444----------------------------------|
G|-77-777-777-777-44-444-444-444-66-666-666-666-666-666-666-666---|
B|-77-777-777-777-22-222-222-222-66-666-666-666-666-666-666-666---|
E|-55-555-555-555----------------44-444-444-444-444-444-444-444---|
PM .. ... ... ... .. ... ... ... .. ... ... ... ... ... ... ...
e|----------------------------------------------------------------|
A|----------------------------------------------------------------|
D|----------------44-444-444-444-66666666666666666666666666666666-|
G|-77-777-777-777-44-444-444-444-66666666666666666666666666666666-|
B|-77-777-777-777-22-222-222-222-44444444444444444444444444444444-|
E|-55-555-555-555-------------------------------------------------|
PM .. ... ... ... .. ... ... ... ............................



Repeat [CHORUS]x2



                                 -END-



|-----------------------------------------------------------------|
| Updates:                                                        |
|-----------------------------------------------------------------|

23/06/2009
[VERSE]    - Guitar 2 changed, sounds better.

24/06/2009
[VERSE]    - Guitar 2 rearranged.
[CHORUS]   - Guitar 2 changed.

Please Vote, and don't hesitate to correct me :)

            
            
Suggest correction
Creating personal tab
Creating personal tab
You can edit any tab online and save it as your Personal.

You can edit, replace or remove any tab part or add personal notes – all changes will be seen only by you.

Personal tabs can be accessed anytime from any device, even offline.
Learn more »
comments
print report bad tab
14 comments total. Showing first comments.
+3 reply
chaoslegion4 10 Jun 06, 2008 03:04 AM

nc tabs..

+4 reply
metalupthe@$$ 78 Jun 07, 2008 04:15 PM

its good. but your missing some harmonies.

+1 reply
hariz05 682 Jun 09, 2008 08:16 AM

thx, yeah, still working on the leading part...
it'll be up soon.

guest
You may want to rate the tab now too:
select rating
Wanna post a correction for this tab? Suggest correction