Oops, an error
Loading. Please wait.

Tilting The Hourglass bass

version 2
version 2

Whole song

Interactive

by Alesana
1,072 views 1 this week
1 commentread comment
1 2 3 4 5
2 more votes to show rating
add to favorites
×
Save as Personal and add changes to this tab that will be seen only by you. Learn more ›
×
You can save this tab as Personal to edit and correct it or add notes. All changes will be seen only by you. Learn more »
launch autoscroll
font size
0
reset
guitar tuner
edit
Autoscroll
slow
fast
+/-
esc
set tempo
stop
tunig: DROP D

Alesana- Tilting The Hourglass

INTRO PRT 1
|--------------------------------------------------|
|--------------------------------------------------|
|--------------------------------------------------|
|-----77----------77------------33------------22---|x2

INTRO PRT 2

|--------------------------------------------------|
|--------------------------------------------------|
|--------------------------------------------------|
|----2-22-22-2-22-22-2-22-22-2-22-22---------------|


VERSE 1 comes in after the guitar harmonic (0:23)

|--------------------------------------------------|
|--------------------------------------------------|
|--------------------------------------------------|
|---222-222-222-222-333-333-333-222----------------|

|--------------------------------------------------|
|--------------------------------------------------|
|--------------------------------------------------|
|-777-777-777-555-777-777-777---222-222-222-222----|

|--------------------------------------------------|
|--------------------------------------------------|
|--------------------------------------------------|
|--33333333-3-2------------------------------------|

CLEAN 1

|-----------------------------------------------------------------|
|-----------------------------------------------------------------|
|------7-7--------------5-5--------------2----------------3-3-----|
|--7-7-----7~-------5-5-----5~-------2-2---5-2~-------3-3-----3---|

CHORUS

the parts were it says 2 x16 and 3 x8 means to play 2 16 times and 3 8 times and  there 
mute notes
|-----------------------------------------------------------------------|
|-----------------------------------------------------------------------|
|-----------------------------------33--33--33--33----------------------|
|--77777777777777773333333333333333----------------2 x16--3 x8-2222-----|

DUO GUITARS

|--------------------------------------------------------------------|
|--------------------------------------------------------------------|
|--------------------------------------------------------------------|
|-777----777----777----777----555----555----555----555---------------|

|---------------------------------------------------------|
|---------------------------------------------------------|
|---------------------------------------------------------|
|-222----222----222----222----333----333----333----333----|

|-----------------------------------------------------------------|
|-----------------------------------------------------------------|
|-----------------------------------------------------------------|
|--77777777777777777777777777777777555555555555555555555555555555-|

|----------------------------------------------------------|
|----------------------------------------------------------|
|----------------------------------------------------------|
|--222----222----222----222----333----333----333----333----|

CLEAN 2

this is just something to play but u could still play around with ur own notes for this 
cause in the song i can hear the bass jumpin around a little bit this is not as fast as 
looks, just play at the speed with the song

|--------------------------------------------------------------------------|
|------------7-----------------5----------------2-2--2---------------------|
|------7-7--7-7-7-7------5-5--5-5-5--------2-2------2--2------3-3----------|
|--7-7-----7---7---7-5-5-----5-----5-5-2-2----2---------2-3-3-----3~-------|
                                             N.H. natural harmonic
|--------------------------------------------5*~------|
|-----------------------------------------------------|
|-----------------------------------------------------|
|--7~-----------5~---------2~--------3~---------------|

CHORUS x1

INTERLUDE

|--------------------------------------------------|
|--------------------------------------------------|
|--------------------------------------------------|
|--3~----2222-2-2-2-2222-2-2-2-3~------------------|

|--------------------------------------------------------------|
|--------------------------------------------------------------|
|--------------------------------------------------------------|
|--222-222-222-333-333-222--77-----77-----77-----77------------|


|------------------------------------|
|------------------------------------|
|------------------------------------|
|--3-5-7\--3-5-7\--3-5-7\-3-5-7\-5---|

CHORUS X2

OUTRO
|----------------------------------|
|----------------------------------|
|----------------------------------|
|--777----777----777----777--------|


Key-  ~=hold note *=harmonic /=slide out downwards

this is pretty much right please leave comments

            
            
Suggest correction
Creating personal tab
Creating personal tab
You can edit any tab online and save it as your Personal.

You can edit, replace or remove any tab part or add personal notes – all changes will be seen only by you.

Personal tabs can be accessed anytime from any device, even offline.
Learn more »
Give kudos to tab author, rate the tab!
1 2 3 4 5
comments
print report bad tab
1 comment total.
0 reply
fallenskater488 16 Jun 17, 2008 11:30 AM

Pretty good tab, just a few mistakes. 4*/5*.

guest
You may want to rate the tab now too:
select rating
Wanna post a correction for this tab? Suggest correction