Oops, an error
Loading. Please wait.

What Goes Around Comes Around tab

version 3
version 3

Whole song

Interactive

by Alesana
16,025 views 6 this week
1 commentread comment
1 2 3 4 5
x 6
add to favorites
×
Save as Personal and add changes to this tab that will be seen only by you. Learn more ›
×
You can save this tab as Personal to edit and correct it or add notes. All changes will be seen only by you. Learn more »
launch autoscroll
font size
0
reset
how to read this tab
guitar tuner
edit
Autoscroll
slow
fast
+/-
esc
set tempo
stop
Author
-------------------------------------------------------------------------
                What Goes Around Comes Around - Alesana
-------------------------------------------------------------------------
Tabbed by: xblackxsailsx
Email:

Tuning: Drop D

INTRO

You can play these two bars over the rhythm part
below, or you can play them and then move on to
the rhythm. Your pick.

Lead
e|-----------------------------------------|
B|--10--8--10------------------------------|(x3)
G|---------------9h10p9h10---7--7----------|
D|-----------------------------------------|
A|-----------------------------------------|
D|-----------------------------------------|

e|-----------------------------------------|
B|--10--8--10--10--8--10--8--10------------|(x1)
G|-----------------------------------------|
D|-----------------------------------------|
A|-----------------------------------------|
D|-----------------------------------------|

Rhythm
e|---------------------------------------------------------------------|
B|---------------------------------------------------------------------|
G|---------------------------------------------------------------------|(x2)
D|77777777--10-10-10-10-10-10-10-10--55555555--12-12-12-12-12-12-12-12-|
A|77777777--10-10-10-10-10-10-10-10--55555555--12-12-12-12-12-12-12-12-|
D|77777777--10-10-10-10-10-10-10-10--55555555--12-12-12-12-12-12-12-12-|


Verse I
Here i didn't tab out the clean guitar part
because i don't have the time...maybe later
if anyone asks for it

("You know I gave you the world")
e|--------------------|
B|--------------------|
G|--------------------|
D|-------7777777--7---|
A|-------7777777--7---|
D|-------7777777--7---|
   PM    *******

  ("So why are love..../I just can't seem to understand")
e|-----------------------------------------------|
B|-----------------------------------------------| (x2)
G|-----------------------------------------------|
D|----------10--------14--12\10h12-9h10p9\7\4----|
A|--10/12-------10/12----------------------------|
D|-----------------------------------------------|

after that, either play the cool intro
riff again, or play this:
(the "\" means to slide down after
playing the chord to no place in
particular...listen to the song lol)
e|------------------------------------------------------------------|
B|------------------------------------------------------------------| (x2)
G|---14-14-14\---17-17-17\------12-12-12\---------------------------|
D|---xx-xx-xx\---xx-xx-xx\------xx-xx-xx\-----12-12-12-12-12-12-12--|
A|---12-12-12\---15-15-15\------10-10-10\-----12-12-12-12-12-12-12--|
D|--------------------------------------------12-12-12-12-12-12-12--|
PM                                            ********************

(i'm not too sure about this part...so i improvised haha)
e|----------------------------------------------------------|
B|----------------------------------------------------------| (x4)
G|-----------12---------------------------------------------|
D|-----10-12-----12-10-12-9--------12-12-12-12-12-12-12-12--|
A|--12-----------------------------12-12-12-12-12-12-12-12--|
D|---------------------------------12-12-12-12-12-12-12-12--|
PM                                 ***********************
(for some reason UG keeps putting those PM *'s under
the 12,10,12,12 part...it goes under the chords lol)

Breakdown:

e|----------------------------------------|
B|----------------------------------------|
G|----------------------------------------| (x2)
D|--0--000-000--000-000--000-00--8888-5555|
A|--0--000-000--000-000--000-00--8888-5555|
D|--0--000-000--000-000--000-00--8888-5555|
PM  ***************************

Then add:
D|----10-10-10-10--8-10-8-10--------------|
A|----10-10-10-10--8-10-8-10--------------|
D|----10-10-10-10--8-10-8-10--------------|

Now, repeat everything from Verse I.
but this time, don't play the second
part of the breakdown. instead,
play the intro riff twice, or
just stop playing during that
(probably easier cuz you don't
have to switch parts) and then
play the intro riff a whole step up:

e|-------------------------------------------------------|
B|--12--10--12-------------------------------------------|(x3)
G|---------------11h12p11h12--9--9-----------------------|
D|-------------------------------------------------------|
A|-------------------------------------------------------|
D|-------------------------------------------------------|

e|-------------------------------------------------------|
B|--12--10--12--12--10--12--10--12-----------------------|(x1)
G|-------------------------------------------------------|
D|-------------------------------------------------------|
A|-------------------------------------------------------|
D|-------------------------------------------------------|

play that 4 times.

then, play this rhythm part 4 times:
e|----------------------------|
B|----------------------------|
G|----------------------------|
D|---10--12--2-2--------------|
A|---10--12--2-2--------------|
D|---10--12--2-2--------------|
             * *
then, play this:
e|---------------------------------------------------------------|
B|---------------------------------------------------------------| (x2)
G|---------------------------------------------------------------|
D|---2--222--222--222--------------------------------------------|
A|---2--222--222--222--------------------------------------------|
D|---2--222--222--222--------------------------------------------|

e|---------------------------------------------------------------|
B|---------------------------------------------------------------| (x2)
G|---------------------------------------------------------------|
D|---2--222--222--222--------------------------------------------|
A|---2--222--222--222--------------------------------------------|
D|---2--222--222--222--------------------------------------------|
PM ******************

FINALLY, play this 3 times:

e|----7----------------------|
B|--------10--8--7-----------|
G|--------------------9------| (x3)
D|---------------------------|
A|---------------------------|
D|---------------------------|

e|-----7-----------7----------|
B|---------10--8------10--8---|
G|----------------------------|  (x1)
D|----------------------------|
A|----------------------------|
D|----------------------------|

after that, you play the 7,10,8,7,9
thing i just showed you twice (not 3x)
and then end by playing the 7 on the
high e string
i hope that's right!
:)
i tried haha

| /  slide up
| \  slide down
| h  hammer-on
| p  pull-off
| ~  vibrato
| +  harmonic
| x  Mute note
===============================================================================

            
            
Suggest correction
Creating personal tab
Creating personal tab
You can edit any tab online and save it as your Personal.

You can edit, replace or remove any tab part or add personal notes – all changes will be seen only by you.

Personal tabs can be accessed anytime from any device, even offline.
Learn more »
comments
print report bad tab
1 comment total.
0 reply
1ndustry 234 Mar 18, 2012 07:07 AM

I love you

guest
You may want to rate the tab now too:
select rating
Wanna post a correction for this tab? Suggest correction