Oops, an error
Loading. Please wait.

Bug tab

by Alex G
8,272 views 75 this week
3 commentsread comments
1 2 3 4 5
x 8
add to favorites
×
Save as Personal and add changes to this tab that will be seen only by you. Learn more ›
×
You can save this tab as Personal to edit and correct it or add notes. All changes will be seen only by you. Learn more »
launch autoscroll
font size
0
reset
how to read this tab
guitar tuner
edit
Autoscroll
slow
fast
+/-
esc
set tempo
stop
Tabbed by: Liam Pasley
E-mail: liampasley@gmail.com

Tuning: Drop D

[Chords for the Intro and Verses]
e|---------------------------------------------------------------------------|
B|---------------------------------------------------------------------------|
G|------------------------------------9999-----------------------------------|
D|------------------------------------7777-----------------------------------|
A|-5555--2222--5555--0000--2222--9999----------------------------------------|
D|-5555--2222--5555--0000--2222--9999----------------------------------------|

[Chorus and Bridge]
e|---------------------------------------------------------------------------|
B|---------------------------------------------------------------------------|
G|---------------------------------------------------------------------------|
D|---------------------------------------------------------------------------|
A|-5555-5-2-2-9-9-7-7-5 5-22-------------------------------------------------|
D|-5540-0-2-2-9-9-6-6-5 5-22-------------------------------------------------|

            
            
Suggest correction
Creating personal tab
Creating personal tab
You can edit any tab online and save it as your Personal.

You can edit, replace or remove any tab part or add personal notes – all changes will be seen only by you.

Personal tabs can be accessed anytime from any device, even offline.
Learn more »
comments
print report bad tab
3 comments total.
0 reply
wrightcpw 10 Nov 03, 2015 02:53 AM, edited at 07:54 am

A|-5555-5-2-2-9-9-7-7-5 5-22-------------------------------------------------|
D|-5540-0-2-2-9-9-6-6-5 5-22-------------------------------------------------|

0 reply
wrightcpw 10 Nov 03, 2015 02:57 AM

e|--------------------------------------------------------------------------|
B|------------------------0-------------------------------------------------|
G|------------------------0-------------------------------------------------|
D|------------------------0-------------------------------------------------|
A|-5555-5-2-2-9-9-7-7-5-5-2-------------------------------------------------|
D|-5540-0-2-2-9-9-6-6-5-5-2-------------------------------------------------|

nice tab, just a minor correction for the chorus.

+2 reply
sideshowjamie 106 Apr 14, 2016 11:08 AM

Great tab! My only correction would be that I think the tuning is DADF#Be (he uses this tuning a lot & it makes the open chords sound a bit better)

guest
You may want to rate the tab now too:
select rating
Wanna post a correction for this tab? Suggest correction