Oops, an error
Loading. Please wait.

Vanishing Point Acoustic chords

3,391 views 66 this week
1 commentread comment
1 2 3 4 5
x 7
add to favorites
×
Save as Personal and add changes to this tab that will be seen only by you. Learn more ›
×
You can save this tab as Personal to edit and correct it or add notes. All changes will be seen only by you. Learn more »
launch autoscroll
font size
0
reset
transpose
0
reset
simplify chords
display chords
guitar tuner
edit
Autoscroll
slow
fast
+/-
esc
set tempo
stop
About this tab version
If you watch the acoustic version pretty much everywhere there aren't any chords you repeatedly play the tab section. Also at one point Am is played differently. Was this info helpful? Yes No
Strumming
There is no strumming pattern for this song yet. and get +5 IQ
Video - https://www.youtube.com/watch?v=qhDdwemoV08&t=118s

Capo Fret 2

Chords used: Dm, Bdim, Dm7, Am, Eaug, F, E, Am7, F/E, D7sus4

Chord Diagrams:

Dm
E|--1--
B|--3--
G|--2--
D|-----
A|-----
E|-----

Bdim
E|--1--
B|--3--
G|--4--
D|-----
A|-----
E|-----

Dm7
E|--1--
B|--1--
G|--2--
D|-----
A|-----
E|-----

Am
E|-----
B|--1--
G|--2--
D|--2--
A|-----
E|-----

Eaug
E|-----
B|--1--
G|--1--
D|--2--
A|-----
E|-----

F
E|--1--
B|--1--
G|--2--
D|--3--
A|--3--
E|--1--

E
E|-----
B|-----
G|--1--
D|--2--
A|--2--
E|-----

Am7
E|--3--
B|--1--
G|--2--
D|--2--
A|-----
E|-----

F/E
E|--1--
B|--1--
G|--2--
D|--2--
A|-----
E|-----

D7sus4
E|--3--
B|--1--
G|--2--
D|-----
A|-----
E|-----



[Intro]

E|----------------------------------------------|
B|----------------------------------------------|
G|--------------0----------------------0--------|
D|--2-----2--3-----3--0----2-----2--3-----3--0--|
A|-----0----------------------0-----------------|
E|----------------------------------------------|

E|----------------------------------------------|
B|----------------------------------------------|
G|--------------0----------------------0--------|
D|--2-----2--3-----3--0----2-----2--3-----3--0--|
A|-----0----------------------0-----------------|
E|----------------------------------------------|

Twisted on a dead straight road
E|----------------------------------------------|
B|----------------------------------------------|
G|--------------0----------------------0--------|
D|--2-----2--3-----3--0----2-----2--3-----3--0--|
A|-----0----------------------0-----------------|
E|----------------------------------------------|


Haven't got a change of clothes
E|----------------------------------------------|
B|----------------------------------------------|
G|--------------0----------------------0--------|
D|--2-----2--3-----3--0----2-----2--3-----3--0--|
A|-----0----------------------0-----------------|
E|----------------------------------------------|

We just split call me crazy
E|----------------------------------------------|
B|----------------------------------------------|
G|--------------0----------------------0--------|
D|--2-----2--3-----3--0----2-----2--3-----3--0--|
A|-----0----------------------0-----------------|
E|----------------------------------------------|

But I think they might be onto us
E|----------------------------------------------|
B|----------------------------------------------|
G|--------------0----------------------0--------|
D|--2-----2--3-----3--0----2-----2--3-----3--0--|
A|-----0----------------------0-----------------|
E|----------------------------------------------|

[Verse 1]

Everybody else can eat my dust
E|----------------------------------------------|
B|----------------------------------------------|
G|--------------0----------------------0--------|
D|--2-----2--3-----3--0----2-----2--3-----3--0--|
A|-----0----------------------0-----------------|
E|----------------------------------------------|

Shall we make believe they're chasing us?
E|----------------------------------------------|
B|----------------------------------------------|
G|--------------0----------------------0--------|
D|--2-----2--3-----3--0----2-----2--3-----3--0--|
A|-----0----------------------0-----------------|
E|----------------------------------------------|

Make a wish for me baby
E|----------------------------------------------|
B|----------------------------------------------|
G|--------------0----------------------0--------|
D|--2-----2--3-----3--0----2-----2--3-----3--0--|
A|-----0----------------------0-----------------|
E|----------------------------------------------|


'Cause I think they might be catching up
E|----------------------------------------------|
B|----------------------------------------------|
G|--------------0----------------------0--------|
D|--2-----2--3-----3--0----2-----2--3-----0--2--|
A|-----0----------------------0-----------------|
E|----------------------------------------------|


[Chorus]

                  Dm Bdim Dm7
You're a thousand times mine
               Am    Eaug
I'm a thousand times yours
           Dm Bdim Dm7
A thousand times mine 
                      Am   Eaug
And I want a thousand more
              F
Oh, until the vanishing point
          E            Am     Am7 F/E Dm
And baby, not a moment before
                  F
You're a thousand times mine
    E
And I am a thousand yours

[Verse 2]

As if the earth’s reserved for you and I
E|----------------------------------------------|
B|----------------------------------------------|
G|--------------0----------------------0--------|
D|--2-----2--3-----3--0----2-----2--3-----3--0--|
A|-----0----------------------0-----------------|
E|----------------------------------------------|


Not a soul for miles behind the sign
E|----------------------------------------------|
B|----------------------------------------------|
G|--------------0----------------------0--------|
D|--2-----2--3-----3--0----2-----2--3-----3--0--|
A|-----0----------------------0-----------------|
E|----------------------------------------------|


We just slipped off the radar
E|----------------------------------------------|
B|----------------------------------------------|
G|--------------0----------------------0--------|
D|--2-----2--3-----3--0----2-----2--3-----3--0--|
A|-----0----------------------0-----------------|
E|----------------------------------------------|


And I think they might be onto us
E|----------------------------------------------|
B|----------------------------------------------|
G|--------------0----------------------0--------|
D|--2-----2--3-----3--0----2-----2--3-----3--0--|
A|-----0----------------------0-----------------|
E|----------------------------------------------|


[Chorus]

                  Dm Bdim Dm7
You're a thousand times mine
               Am    Eaug
I'm a thousand times yours
           Dm Bdim Dm7
A thousand times mine 
                      Am   Eaug
And I want a thousand more
              F
Oh, until the vanishing point
          E            Am     Am7 F/E Dm
And baby, not a moment before
                  F
You're a thousand times mine
    E
And I am a thousand yours

E|----------------------------------------------|
B|----------------------------------------------|
G|--------------0----------------------0--------|
D|--2-----2--3-----3--0----2-----2--3-----3--0--|
A|-----0----------------------0-----------------|
E|----------------------------------------------|

E|-----------------------|
B|--------------0--------|
G|-----------------0-----|
D|--2-----2--3--------2--|
A|-----0-----------------|
E|-----------------------| 

[Bridge]

Am                                      Dm Am
Spectacular blacklight posting neon sky
N.C
To which the sun so quickly unsubscribes
        Dm        Bdim 
Want to call it a night
      Dm7                   D7sus4 Am  
But I think they might be onto us

E|-----------0--------|
B|--------1--1-----0--|
G|-----2-----1--------|
D|--2--------2--2-----|
A|-----------0--------|
E|-----------0--------|

F Dm Am Dm Bdim Dm7 Am Eaug

[Outro]

              F
Oh, until the vanishing point
          E            Am     Am7 F/E Dm
And baby, not a moment before
                  F
You're a thousand times mine
    E
And I am a thousand yours

A thousand yours
E|----------------------------------------------|
B|----------------------------------------------|
G|--------------0----------------------0--------|
D|--2-----2--3-----3--0----2-----2--3-----3--0--|
A|-----0----------------------0-----------------|
E|----------------------------------------------|


A thousand yours
E|----------------------------------------------|
B|----------------------------------------------|
G|--------------0----------------------0--------|
D|--2-----2--3-----3--0----2-----2--3-----3--0--|
A|-----0----------------------0-----------------|
E|----------------------------------------------|


E|-----------------------|
B|-----------------------|
G|--------------0--------|
D|--2-----2--3-----3--0--|
A|-----0-----------------|
E|-----------------------|(repeat until end)

            
            
Suggest correction
Creating personal tab
Creating personal tab
You can edit any tab online and save it as your Personal.

You can edit, replace or remove any tab part or add personal notes – all changes will be seen only by you.

Personal tabs can be accessed anytime from any device, even offline.
Learn more »
comments
print report bad tab
1 comment total.
+1 reply
stujohnburns 10 Mar 22, 2017 07:13 PM

Great tab. I think that chord after the Am in chorus is something like an amin(maj7), so probably played xx2110.

guest
You may want to rate the tab now too:
select rating
Wanna post a correction for this tab? Suggest correction