Oops, an error
Loading. Please wait.

Old Crows bass

version 3
version 3

Whole song

Interactive

404 views 1 this week
2 commentsread comments
1 2 3 4 5
1 last vote to show rating
add to favorites
×
Save as Personal and add changes to this tab that will be seen only by you. Learn more ›
×
You can save this tab as Personal to edit and correct it or add notes. All changes will be seen only by you. Learn more »
launch autoscroll
font size
0
reset
guitar tuner
edit
Autoscroll
slow
fast
+/-
esc
set tempo
stop
Author
Difficulty
Old Crows - Alexisonfire
Hey Guys! This ist he Bass Tab to Old Crows by Alexisonfire. 
I know, I'm not the first one, who submits this song, but I think my version is easier to play. 
Please rate and check out my other tabs! :)

Main Riff
G|-------------|-------------|-------------|-------------|
D|---4----4--4-|---4----4----|-------------|-------------|
A|-------------|-----------4-|---4----4--2-|---2----2--2-|
E|4-4--4-4--4--|4-4--4-4--4--|5-5--5-5--5--|2-2--2-2--2--|

Pre-Chorus 1
G|-------------|-------------|-------------|-------------|
D|-------------|-------------|-------------|-------------|
A|-------------|-------------|-------------|-------------|
E|4-44-4-44-4-4|4-44-4-44-4-4|5-55-5-55-5-5|2-22-2-22-2-2|

Chorus
G|-------------|-------------|-------------|-------------|
D|-------------|-------------|-------------|-------------|
A|-------------|4-44-4-44-4-4|-------------|2--2-2-0--0-0|
E|4-44-4-44-4-4|-------------|2-22-2-22-2-2|-------------|

Pre-Chorus 2
G|-------------|-------------|-------------|-------------|
D|---4----4----|4----4----4--|-------------|-------------|
A|-------------|-------------|---4----4--2-|---2----2--2-|
E|4-4--4-4--4-4|--4-4--4-4--4|5-5--5-5--5--|2-2--2-2--2--|

Bridge Part 1   Bridge Part 2                   Bridge Part 3
G|------------| G|-------------|--------------| G|----|----|----|----|
D|---4--------| D|---4----4--4-|---4----------| D|----|----|----|----|
A|------------| A|-------------|--------------| A|----|----|----|----|
E|4-4--4~~----| E|4-4--4-4--4--|4-4--4-5-5-5-5| E|4~~~|~~~~|~~~~|~~~~|

Outro
G|-------------|-------------|-------------|-------------|
D|-------------|-------------|-------------|-------------|
A|-------------|-------------|-------------|-------------|
E|4-44-4-44-4-4|4-44-4-44-4-4|4-44-4-44-4-4|4-44-4-44-4-4|

Order:
Main Riff               8x
Pre-Chorus 1            2x
Chorus                  4x
Main Riff               4x
Pre-Chorus 2            2x
Chorus                  4x
Bridge Part 1           2x
Bridge Part 2           4x
Bridge Part 3           2x
Chorus                  4x
Outro                   2x

Enjoy! ;)

            
            
Suggest correction
Creating personal tab
Creating personal tab
You can edit any tab online and save it as your Personal.

You can edit, replace or remove any tab part or add personal notes – all changes will be seen only by you.

Personal tabs can be accessed anytime from any device, even offline.
Learn more »
Give kudos to tab author, rate the tab!
1 2 3 4 5
comments
print report bad tab
2 comments total.
0 reply
gladdyss 43 Mar 06, 2014 12:24 PM

Hey, I play it absolutely in a same way but in a half step down tuning! Great job man :)

0 reply
TheMasterofP 663 Mar 09, 2014 02:57 PM

Yeah, it's normally half step down, but they don't play even once Eb on the tuned down E-string, that's why I gave a standard tune version.
Thank you for your rating! ;)

guest
You may want to rate the tab now too:
select rating
Wanna post a correction for this tab? Suggest correction