Oops, an error
Loading. Please wait.

Unraveling tab

1,018 views 1 this week
2 commentsread comments
1 2 3 4 5
3 more votes to show rating
add to favorites
×
Save as Personal and add changes to this tab that will be seen only by you. Learn more ›
×
You can save this tab as Personal to edit and correct it or add notes. All changes will be seen only by you. Learn more »
launch autoscroll
font size
0
reset
how to read this tab
guitar tuner
edit
Autoscroll
slow
fast
+/-
esc
set tempo
stop
Author
Difficulty
These tab are not correct to 100%

Tuning: standard E

    INTRO
e|------------------------------------|
B|------------------------------------|
G|--------------9--------9------------|
D|--------7--------7--------7---------|
A|-----7-----7--------7---------------|
E|------------------------------------|

I've been walking through the ruins 
Of my life in times 
Seems like everything's sinking right in front of my eyes

    VERSE
e|------------------------------------|
B|------------------------------------|
G|--------7--7--6--6------------------|
D|--7--7--7—-7--7--7------------------|
A|--7--7--5--5--5--5------------------|
E|--5--5------------------------------|

I've been asking all the questions 
But nothing's coming back 
Now I'm trying to keep myself from slipping through the cracks

    PRE-CHORUS

e|------------------------------------------------------|
B|------------------------------------------------------|
G|----------1-------7--7--6--7--7--6--7--6—-7--6—-7—-6--|
D|--4—------2-------7--7--7--7--7--7--7--7--7—-7—-7—-7--| 
A|--4-------2-(x8)--5--5--5--5--5--5--5--5—-5—-5--5--5--|
E|--2-(x8)----------------------------------------------|

Where's my faith? 
How did I get this far? 
Who do I blame 
When it falls apart

    CHORUS
e|-------------------------------------------------------------------|
B|-------------------------------------------------------------------|
G|-----------1-----------------7-------7--7--6--7--7--6--7--6—-7—-6--|
D|--5--------2--------4—-------7-------7--7--7--7--7--7--7--7--7—-7—-| 
A|--5--------2-(x6)---4--------5-(x6)--5--5--5--5--5--5--5--5—-5—-5--|
E|--7-(x6)------------2-(x6)-----------------------------------------|

Maybe the moon's just a hole in the sky 
One day at a time my world is shattering 
Maybe the answer's to never ask why 
As I watch my life unraveling 
Unraveling

    VERSE

e|------------------------------------|
B|------------------------------------|
G|--------7--7--6--6------------------|
D|--7--7--7—-7--7--7------------------|
A|--7--7--5--5--5--5------------------|
E|--5--5------------------------------|

I do not who to turn to 
And I wonder who's a friend 
Out of everyone I trusted her to be there to the end

I'm running out of reasons 
For putting up a fight 
Trying to drag another lost soul back into the light




            
            
Suggest correction
Creating personal tab
Creating personal tab
You can edit any tab online and save it as your Personal.

You can edit, replace or remove any tab part or add personal notes – all changes will be seen only by you.

Personal tabs can be accessed anytime from any device, even offline.
Learn more »
Give kudos to tab author, rate the tab!
1 2 3 4 5
comments
print report bad tab
2 comments total.
0 reply
renee-xo 60 Jun 10, 2008 12:37 AM

I think this sounds better...

e|------------------------------------|
B|------------3-----3-----------------|
G|--------0-----0-----0---------------|
D|------0---0-----0-------------------|
A|------------------------------------|
E|------------------------------------|

And open chords for verses...

G, C2, G..

etc.. just saying sorry.

0 reply
Alex <3 Declan 192 Oct 27, 2008 07:38 PM

does anyone know the bridge for this song (like in tyler kyte's version)?

guest
You may want to rate the tab now too:
select rating
Wanna post a correction for this tab? Suggest correction