Oops, an error
Loading. Please wait.

Burning Our Bed intro tab

version 1
version 1

Intro

Interactive

631 views 9 this week
no commentswrite comment
1 2 3 4 5
2 more votes to show rating
add to favorites
×
Save as Personal and add changes to this tab that will be seen only by you. Learn more ›
×
You can save this tab as Personal to edit and correct it or add notes. All changes will be seen only by you. Learn more »
launch autoscroll
font size
0
reset
how to read this tab
guitar tuner
edit
Autoscroll
slow
fast
+/-
esc
set tempo
stop
Author
-------------------------------------------------------------------------------
                         Burning our bed - Alice Cooper
-------------------------------------------------------------------------------
Tabbed by: Baasen

this is my first tab

I could not find a tab that shows how to correctly play this song 
so i tried to make my own.
I can't get it 100% correct, but i think this sounds quite close to the real song.

I decided to upload this so that maybe others could get a good idea of how the intro goes
and maybe make some changes to get it closer to the real song.

I would love to take suggestions on how to improve this.


************************************

| /   slide up
| \   slide down
| h   hammer-on
| p   pull-off

************************************

Tuning: standard

play this twice for the intro and then continue repeating for the vers

    G                                             Dsus2

e|--3-------3------3------------------------------------------------------------|
B|--3-------3------3------------------------------3--3--3---3---3--3---------3--|
G|--0-------0------0------------------------------2--2--2---2---2--2------2-----|
D|--0-------0------0--------0---0h2p0-------------0--0--0---0---0--0---0--------|
A|--2-------2------2--0--2------------2--0--2-----2--2--2---2---2--2------------|
E|--3-------3------3------------------------------------------------------------|

    Am                         C                     D
e|---------3----3--3---3---3-------------------------2-----------2--------------|
B|--1------1----1--1---1---1---------------------1---3-/-5-\-3---3--------------|
G|--2------2----2--2---2---2-----------------0-------2-/-4-\-2---2--------------|
D|--2------2----2--2---2---2-------------2--------------------------------------|
A|-----------------------------0--2--3------------------------------------------|
E|------------------------------------------------------------------------------|

i play it like this when repeating

e|-------------3--3--3-----3-----------------------------|
B|-------------3--3--3-----3-----------------------------|
G|-------------0--0--0-----0-----------------------------|
D|-------------0--0--0-----0--------0---0h2p0------------|
A|-------------2--2--2-----2--0--2-------------2--0--2---|
E|--0--2--3----3--3--3-----3-----------------------------|


instead of playing Dsus2 you could play Bm like this

e|--2--2--2---2---2--2-------------------------------------------------------|
B|--3--3--3---3---3--3---------3---------------------------------------------|
G|--4--4--4---4---4--4------4------------------------------------------------|
D|--4--4--4---4---4--4---4---------------------------------------------------|
A|--2--2--2---2---2--2-------------------------------------------------------|
E|--2--2--2---2---2--2-------------------------------------------------------|

i don't know wich one is more right but i think both sounds good 




I'm not posting the whole song because there is already a good tab with chords 
for the whole song around here that you could combine this with


            
            
Suggest correction
Creating personal tab
Creating personal tab
You can edit any tab online and save it as your Personal.

You can edit, replace or remove any tab part or add personal notes – all changes will be seen only by you.

Personal tabs can be accessed anytime from any device, even offline.
Learn more »
Give kudos to tab author, rate the tab!
1 2 3 4 5
comments
print report bad tab
guest
You may want to rate the tab now too:
select rating
Wanna post a correction for this tab? Suggest correction