Oops, an error
Loading. Please wait.

Lost In America tab

version 2
version 2

Whole song

2,289 views 1 this week
no commentswrite comment
1 2 3 4 5
x 3
add to favorites
×
Save as Personal and add changes to this tab that will be seen only by you. Learn more ›
×
You can save this tab as Personal to edit and correct it or add notes. All changes will be seen only by you. Learn more »
launch autoscroll
font size
0
reset
how to read this tab
guitar tuner
edit
Autoscroll
slow
fast
+/-
esc
set tempo
stop
Author
Difficulty
-------------------------------------------------------------------------------
                             LOST IN AMERICA - Alice Cooper
-------------------------------------------------------------------------------
Tabbed by: ironmanben
Email: bentrooper@gmail.com

Tuning: e B G D A E

guitar 1 - Stef Burns - lead
guitar 2 - Don Wexler - rhythm


intro:
e|---------------------------------|---------------------------------|
B|---------------------------------|---------------------------------|
G|-----------------------------5-0-|---------------------------------|
D|-5--/7-7---7-----5--/7-------5-0-|-5--/7-7-7-7-----5--/7-------2-2-|
A|-5--/7-7---7-----5--/7-0-0-0-----|-5--/7-7-7-7-----5--/7-0-0-0-2-2-|
E|---------------------------------|---------------------------------|
-|                                 |                                 |
e|---------------------------------|---------------------------------|
B|---------------------------------|---------------------------------|
G|-----------------------------5---|---------------------------------|
D|-----------------------------5---|---------------------------------|
A|-5--/7-7---7-----5--/7-7-7-7-3---|----/7-7---7-----5--/7-7-7-7-----|
E|-3--/5-5---5---0-3--/5-5-5-5-----|-3--/5-5---5---0-3--/5-5-5-5-0-0-|

e|---------------------------------|-----------------------------------|
B|---------------------------------|-----------------------------------|
G|-----------------------------5-0-|---------------------------------7-|
D|-5--/7-7---7-----5--/7-------5-0-|-5--/7-7-7-7-----5--/7-------5-5-7-|
A|-5--/7-7---7-----5--/7-0-0-0-----|-5--/7-7-7-7-----5--/7-0-0-0-5-5---|
E|---------------------------------|-----------------------------------|
-|                                 |                                   |
e|---------------------------------|-----------------------------------|
B|---------------------------------|-----------------------------------|
G|-----------------------------5---|---------------------------------7-|
D|-----------------------------5---|-----------------------------5-5-7-|
A|-5--/7-7---7-----5--/7-7-7-7-3---|----/7-7---7-----5--/7-7-7-7-5-5-5-|
E|-3--/5-5---5---0-3--/5-5-5-5-----|-3--/5-5---5---0-3--/5-5-5-5-3-3---|


verse:
e|---------------------------------------------------------------|
B|---------------------------------------------------------------|
G|---------------------------------------------------------5-----|
D|-7-----------------------------5/7-7---7-----------5/7-7-5---7-|
A|-7---0-0-0-0-0-0-0-0-0-0-0-0-0-5/7-7---7-----------5/7-7-----7-|
E|---------------------------------------------------------------|
-|     x x x x x x x x x x x x x                                 |
e|---------------------------------------------------------------|
B|---------------------------------------------------------------|
G|---------------------------------------------------------------|
D|-7-------------------------------------------------------5+----|
A|-7---7-7-7-7-7-7-7-7-7-7-7-7-7-5/7-7---7\----------5/7-7-----7-|
E|-5---5-5-5-5-5-5-5-5-5-5-5-5-5-3/5-5---5\----------3/5-5-----5-|
       x x x x x x x x x x x x x


verse outro:
e|-------------------------------------------------------------------------|
B|---------------------------------7br----5------------7br----5------------|
G|------------------------------5--7br----5---------5--7br----5------------|
D|-7-------------------------/7-5---------5--7---/7-5---------5--7---------|
A|-7---0-0-0-0-0-0-0-0-0-0-0-/7--------------7---/7--------------7---------|
E|-------------------------------------------------------------------------|
-|     x x x x x x x x x x x                                               |
e|-------------------------------------------------------------------------|
B|-------------------------------------------------------------------------|
G|-------------------------------------------------------------------------|
D|-7-----------------------------------------------------------------------|
A|-7---7-7-7-7-7-7-7-7-7-7-7-/7-10-12br---10-7---/7-10-12br---10-7---------|
E|-5---5-5-5-5-5-5-5-5-5-5-5-/5-8--10br---8--5---/5-8--10br---8--5---------|
       x x x x x x x x x x x 


pre-chorus:
e|------------------------------------------------------|
B|------------------------------------------------------|
G|-7-------------------------------5br(7)br(7)br(7)b(7)-|
D|-7----------------------------------------------------|
A|-5----------------------------------------------------|
E|------------------------------------------------------|
-|                                                 |- - |
e|-2-----------------------------------------------|
B|-3-------------------------------3-3-3-3-3-3-3-3-|
G|-2-------------------------------2-2-2-2-2-2-2-2-|
D|-0-----------------------------------------------|
A|-------------------------------------------------|
E|-------------------------------------------------|


chorus 1:
e|-----------------------------------------------------------------|
B|-8/11111111108-8--/11111111108-8--/11111111108-8--/111111118-8-8-|
G|-7/9-9-9-9-8-7-7--/9-9-9-9-8-7-7--/9-9-9-9-8-7-7--/9-9-9-9-7-7-7-|
D|-5/7-7-7-7-6-5-5--/7-7-7-7-6-5-5--/7-7-7-7-6-5-5--/7-7-7-7-5-5-5-|
A|-----------------------------------------------------------------|
E|-----------------------------------------------------------------|
-|                                                                 |
e|-----------------------------------------------------------------|
B|-----------------------------------------------------------------|
G|---------------------------5-5-----------------------------------|
D|---------------------------5-5---------------------------------7-|
A|-5/7-7-7-7-6-5-5--/7-7-7-7-----5--/7-7-7-7-6-5-5--/7-7-7-7-5-5-5-|
E|-3/5-5-5-5-4-3-3--/5-5-5-5-----3--/5-5-5-5-4-3-3--/5-5-5-5-3-3---|



chorus 2:
e|-----------------------------------------------------------------|
B|-8/11111111108-8--/11111111108-8--/11111111108-8--/11111111108-8-|
G|-7/9-9-9-9-8-7-7--/9-9-9-9-8-7-7--/9-9-9-9-8-7-7--/9-9-9-9-8-7-7-|
D|-5/7-7-7-7-6-5-5--/7-7-7-7-6-5-5--/7-7-7-7-6-5-5--/7-7-7-7-6-5-5-|
A|-----------------------------------------------------------------|
E|-----------------------------------------------------------------|
-|                                                                 |
e|-----------------------------------------------------------------|
B|-----------------------------------------------------------------|
G|---------------------------5-5-----------------------------------|
D|---------------------------5-5-----------------------------------|
A|-5/7-7-7-7-6-5-5--/7-7-7-7-----5--/7-7-7-7-6-5-5--/7-7-7-7-------|
E|-3/5-5-5-5-4-3-3--/5-5-5-5-----3--/5-5-5-5-4-3-3--/5-5-5-5-0-0-0-|


e|-----------------------------------------------------------------|
B|-8/11111111108-8--/11111111108-8--/11111111108-8--/111111118-8-8-|
G|-7/9-9-9-9-8-7-7--/9-9-9-9-8-7-7--/9-9-9-9-8-7-7--/9-9-9-9-7-7-7-|
D|-5/7-7-7-7-6-5-5--/7-7-7-7-6-5-5--/7-7-7-7-6-5-5--/7-7-7-7-5-5-5-|
A|-----------------------------------------------------------------|
E|-----------------------------------------------------------------|
-|                                                                 |
e|-----------------------------------------------------------------|
B|-----------------------------------------------------------------|
G|---------------------------5-5-----------------------------------|
D|---------------------------5-5-----------------------------------|
A|-5/7-7-7-7-6-5-5--/7-7-7-7-----5--/7-7-7-7-6-5-5--/7-7-7-7-5-----|
E|-3/5-5-5-5-4-3-3--/5-5-5-5-----3--/5-5-5-5-4-3-3--/5-5-5-5-3-----|



bridge:
e|---------------------------------|---------------------------------|
B|-5-------------------------------|----12^--------------------------|
G|-4-------------------------------|----12^--------------------------|
D|-2-------------------------------|-------14--12----12--12----12-14-|
A|---------------------------------|--------------14--------14-------|
E|---------------------------------|---------------------------------|
-|                                 |                                 |
e|-0-------------------------------|---------------------------------|
B|-0-------------------------------|---------------------------------|
G|-1-------------------------------|---------------------------------|
D|-2-------------------------------|-----5^--------------------------|
A|-2-------------------------------|---------7---5---5---5---5-7-----|
E|-0-------------------------------|---------------7-------7---------|


e|---------------------------------|---------------------------------|
B|----12^--------------------------|----12^--------------------------|
G|----12^--------------------------|----12^--------------------------|
D|-------14--12----12--12----12----|-------14--12----12--12----12-14-|
A|--------------14--------14----10^|--------------14--------14-------|
E|---------------------------------|---------------------------------|
-|                                 |                                 |
e|---------------------------------|---------------------------------|
B|---------------------------------|---------------------------------|
G|---------------------------------|---------------------------------|
D|-----5^--------------------------|-----5^--------------------------|
A|---------7---5---5---5---5-------|---------7---5---5---5---5-7-----|
E|-0-------------7-------7---3^----|-0-------------7-------7---------|



guitar 1 solo:
e|--------5---5-/5-5-/5-5-/5-5-8p7p5--------------------5-5----5-5-----|
B|--------5---5-/5-5-/5-5-/5-5-------8p7p5-----------/5-5-5-/5-5-5-5-7-|
G|----5h6----------------------------------8p7p5-----/5-5-5-/5-5-5-5-7-|
D|-/7--------------------------------------------7---------------------|
A|---------------------------------------------------------------------|
E|---------------------------------------------------------------------|

e|------------------17---17----------------17---17-------------------------|
B|-7br(8)-----------17---17----------17-19-17---17-------------17~-20^(22)-|
G|-7br(8)-5-----------------19-17h18---------------19-17h18----------------|
D|--------5-7~--7-7-----------------------------------------19-------------|
A|-------------------------------------------------------------------------|
E|-------------------------------------------------------------------------|

e|-17---------17-------------17---------------------------|
B|----20^(22)----20^(22)~-------20p17---------------------|
G|------------------------------------19br(21)p17---------|
D|------------------------------------------------19-19~\-|
A|--------------------------------------------------------|
E|--------------------------------------------------------|


chorus 3:
e|-----------------------------------------------------------------|
B|-8/11111111108-8--/11111111108-8--/11111111108-8--/11111111108-8-|
G|-7/9-9-9-9-8-7-7--/9-9-9-9-8-7-7--/9-9-9-9-8-7-7--/9-9-9-9-8-7-7-|
D|-5/7-7-7-7-6-5-5--/7-7-7-7-6-5-5--/7-7-7-7-6-5-5--/7-7-7-7-6-5-5-|
A|-----------------------------------------------------------------|
E|-----------------------------------------------------------------|
-|                                                                 |
e|-----------------------------------------------------------------|
B|-----------------------------------------------------------------|
G|-----------------------------------------------------------------|
D|---------------------------5-5-----------------------------------|
A|-5/7-7-7-7-6-5-5--/7-7-7-7-3-3-5--/7-7-7-7-6-5-5--/7-7-7-7-------|
E|-3/5-5-5-5-4-3-3--/5-5-5-5-----3--/5-5-5-5-4-3-3--/5-5-5-5-0-0-0-|


e|-----------------------------------------------------------------|
B|-8/11111111108-8--/11111111108-8--/11111111108-8--/111111118-8-8-|
G|-7/9-9-9-9-8-7-7--/9-9-9-9-8-7-7--/9-9-9-9-8-7-7--/9-9-9-9-7-7-7-|
D|-5/7-7-7-7-6-5-5--/7-7-7-7-6-5-5--/7-7-7-7-6-5-5--/7-7-7-7-5-5-5-|
A|-----------------------------------------------------------------|
E|-----------------------------------------------------------------|
-|                                                                 |
e|-----------------------------------------------------------------|
B|-----------------------------------------------------------------|
G|-----------------------------------------------------------------|
D|---------------------------5-5-----------------------------------|
A|-5/7-7-7-7-6-5-5--/7-7-7-7-3-3-5--/7-7-7-7-6-5-5--/7-7-7-7-------|
E|-3/5-5-5-5-4-3-3--/5-5-5-5-----3--/5-5-5-5-4-3-3--/5-5-5-5-0-0-0-|



outro 1:
e|-----------------|
B|-10--1010--109-8-|
G|-9---9-9---9-8-7-|
D|-7---7-7---7-6-5-|
A|-----------------|
E|-----------------|
-|                 |
e|-----------------|
B|-----------------|
G|-----------------|
D|-----------------|
A|-7-----7-7-7-6-5-|
E|-5-----5-5-5-4-3-|



outro 2:
e|-----------------------|-----------------------------------------------|
B|-10--------------------|----------------------------9^(10)-------------|
G|-9---------------------|-9--------------------8------------------------|
D|-7---------------------|-----11--------11------------------------------|
A|-----------------------|--------12-------------------------------------|
E|-----------------------|-----------------------------------------------|
-|                       |                                               |
e|-----------------------|-----------------------------------------------|
B|-----------------------|-----------------------------------------------|
G|-2---------------------|-------------------------------------------(2)-|
D|-2---------------------|-------------------------------------------(2)-|
A|-0---------------------|-------------------------------------------(0)-|
E|-----------------------|-----------------------------------------------|


Order:
intro
verse x3
verse outro
pre-chorus
chorus 1
verse x3
verse outro
pre-chorus
chorus 2
bridge
guitar 1 solo (rhythm guitar plays intro)
verse x3
verse outro
pre-chorus
chorus 3 x2 ---|} There is a small solo over chorus 3 and outro 1.
outro 1 x10 ---|} I don't have it tabbed out, but it's in the key of A
outro 2        |  just like the rest of the song, so pretty much anything
               | in the A blues scale will work.

            
            
Suggest correction
Creating personal tab
Creating personal tab
You can edit any tab online and save it as your Personal.

You can edit, replace or remove any tab part or add personal notes – all changes will be seen only by you.

Personal tabs can be accessed anytime from any device, even offline.
Learn more »
Give kudos to tab author, rate the tab!
1 2 3 4 5
comments
print report bad tab
guest
You may want to rate the tab now too:
select rating
Wanna post a correction for this tab? Suggest correction