Oops, an error
Loading. Please wait.
We have an official No More Mr Nice Guy tab made by UG professional guitarists. Check out the tab »
×
232 views 9 this week
no commentswrite comment
1 2 3 4 5
3 more votes to show rating
add to favorites
×
Save as Personal and add changes to this tab that will be seen only by you. Learn more ›
×
You can save this tab as Personal to edit and correct it or add notes. All changes will be seen only by you. Learn more »
launch autoscroll
font size
0
reset
guitar tuner
backing track
0:00
0:00
edit
Autoscroll
slow
fast
+/-
esc
set tempo
stop
Author
Difficulty
Title: No More Mr Nice Guy
Artist: Alice Cooper
Album: Billion Dollar Babies
Tuning: Standard (E A D G)
Tab Author: Pearce Hamblin (The Bass Diaries)

  [Intro]
G|--------|--------|--------|--------|--------|--------|--------|---------------------------------|
D|--------|--------|--------|--------|--------|--------|--------|---------------------------------|
A|--------|--------|--------|--------|--------|--------|--------|-7///////19------------------7///|
E|--------|--------|--------|--------|--------|--------|--------|---------------------------------|


G|---------------------------------|---------------------------------|-----------------------------------|
D|---------------------------------|---------------------------------|-2-------2---2-------------0---2---|
A|/19------------------------------|-2-------2---2-----------0---2---|-------------------2---2-----------|
E|---------------------------------|---------------------2-----------|----------------0------------------|


G|-----------------------------------|-----------------------------------|
D|-----------------------------------|-2-------2---2--2--4---2-------2---|
A|-2-------2---2-------------0---2---|---------------------------4-------|
E|----------------0--2---2-----------|-----------------------------------|


G|-----------------------------------|-------------------------------------|
D|-----------------------------------|-2-------2---2--2--4--4--2---4---5---|
A|-2-------2---2-------------0---2---|-------------------------------------|
E|----------------0--2---2-----------|-------------------------------------|

  [Verse 1]
G|---------------------------------|---------------------------------|
D|-7-------------------------------|-6-------------------------------|
A|---------------------------------|---------------------------------|
E|---------------------------------|---------------------------------|


G|---------------------------------|---------------------------------|---------------------------------|
D|-5-------------------------------|---------------------------------|-7-------------------------------|
A|---------------------------------|-------------5-------7-----------|---------------------------------|
E|---------------------------------|-7-------------------------------|---------------------------------|


G|---------------------------------|---------------------------------|---------------------------------|
D|---------------------------------|-5-------------------------------|---------------------------------|
A|-4-------------------------------|---------------------------------|-------------5-------7-----------|
E|---------------------------------|---------------------------------|-7-------------------------------|

  [Pre-Chorus 1]
G|-----------------------------------|-----------------------------------|---------------------------------|
D|-4-------4------4--4---4---1-------|-----------------------------------|-----------------------------2---|
A|-------------------------------4---|-2-------2---2--0------0---2---3---|-5-------5---5---0---3---5-------|
E|-----------------------------------|-------------------2---------------|---------------------------------|


G|-------------------------------------|-----------------------------------|
D|-2-------2---2--2--2--2--2---2---2---|-4-------4---4--4--4---4---1-------|
A|-------------------------------------|-------------------------------4---|
E|-------------------------------------|-----------------------------------|


G|-----------------------------------|-----------------------------------|
D|-----------------------------------|---------------------------0---2---|
A|-2-------2---2--0------0---2---3---|-5-------5---5--2--0---3-----------|
E|-------------------2---------------|-----------------------------------|

                                      [Chorus 1]
G|-----------------------------------|---------------------------------|
D|-2-------2---2--2--0-------0---2---|-4-------4-----------------------|
A|-----------------------2-----------|-----------------5---5-------7---|
E|-----------------------------------|---------------------------------|


G|---------------------------------|---------------------------------|---------------------6-----------|
D|---------------------------------|-4-------------------------------|-----4-------7-------------------|
A|-7---------------5-------5---7---|-----------------5---5-------7---|-7-------------------------------|
E|---------------------7-----------|---------------------------------|---------------------------------|


G|---------------------------------|---------------------------------|---------------------------------|
D|-4-------------------------------|---------------------------------|-4-------------------------------|
A|-----------------5---5-------7---|-7---------------5-------5---7---|-----------------5---5-------7---|
E|---------------------------------|---------------------7-----------|---------------------------------|

                                    [Interlude]
G|---------------------6-----------|----------7h9--------7h9---------------|
D|-----4-------7-------------------|-7---------------------------------7---|
A|-7-------------------------------|-------------------------------0-------|
E|---------------------------------|---------------------------------------|


G|-----9-------7---7---9---7---7///|/14------14------16----------14--|
D|-----------------7-----------7///|/14------------------------------|
A|---------------------------------|-------------------------0-------|
E|---------------------------------|---------------------------------|


G|-----16------14------16--14--14--|---------14-------14h16------14------|
D|---------------------------------|-------------------------------------|
A|-----------------0---------------|-0-------------------------------0---|
E|---------------------------------|-------------------------------------|


G|-----16------14------16--14------|-14------14------19------18--16--|-----14----------14--14--9-------|
D|---------------------------------|-----------------0---------------|---------------------------------|
A|-----------------0-----------0---|-0-------------------------------|---------------------------------|
E|---------------------------------|---------------------------------|---------------------------------|

  [Pre-Chorus 2]
G|---------------------------------|-----------------------------------|-----------------------------------|
D|-4-------4-------4---4---1-------|-----------------------------------|-----------------------------------|
A|-----------------------------4---|-2-------2---2--0------0---2---3---|-5-------5---5--5--0---3---5---7---|
E|---------------------------------|-------------------2---------------|-----------------------------------|


G|-------------------------------------|-----------------------------------|
D|-2-------2---2--2--2--2--2---2---2---|-4-------4------4--4---4---1-------|
A|-------------------------------------|-------------------------------4---|
E|-------------------------------------|-----------------------------------|


G|-----------------------------------|-----------------------------------|
D|-----------------------------------|-----------------------------------|
A|-2-------2---2--0------0---2---3---|-5-------5---5--2--0---3---5---7---|
E|-------------------2---------------|-----------------------------------|

                                    [Chorus 2]
G|---------------------------------|---------------------------------|
D|-2-------2---2---0-------0---2---|-4---------------0---0-------2---|
A|---------------------2-----------|---------------------------------|
E|---------------------------------|---------------------------------|


G|---------------------------------|---------------------------------|---------------------6-----------|
D|-2---------------0-------0---2---|-4-------------------------------|-----4-------7-------------------|
A|---------------------2-----------|-----------------5---5-------7---|-7-------------------------------|
E|---------------------------------|---------------------------------|---------------------------------|


G|---------------------------------|---------------------------------|---------------------------------|
D|-4-------------------------------|---------------------------------|-4-------------------------------|
A|-----------------5---5-------7---|-7---------------5-------5---7---|-----------------5---5-------7---|
E|---------------------------------|---------------------7-----------|---------------------------------|

                                    [Bridge]      
G|---------------------6-----------|--------|--------|--------|--------|--------|--------|
D|-----4-------7-------------------|--------|--------|--------|--------|--------|--------|
A|-7-------------------------------|--------|--------|--------|--------|--------|--------|
E|---------------------------------|--------|--------|--------|--------|--------|--------|


G|--------|--------|---------------------------------|---------------------------------|
D|--------|--------|-7---7---7---7---7---7---7---7---|-6---6---6---6---6---6---6---6---|
A|--------|--------|---------------------------------|---------------------------------|
E|--------|--------|---------------------------------|---------------------------------|


G|---------------------------------|---------------------------------|---------------------------------|
D|-5---5---5---5---5---5---5---5---|-----------------------------5---|-7---7---7---7---7---7---7---7---|
A|---------------------------------|-------------5---5---7---7-------|---------------------------------|
E|---------------------------------|-7---7---7-----------------------|---------------------------------|


G|---------------------------------|---------------------------------|---------------------------------|
D|---------------------------------|-5---5---5---5---5---5---5---5---|---------------------------------|
A|-4---4---4---4---4---4---4---4---|---------------------------------|-------------5---5---7---7---7---|
E|---------------------------------|---------------------------------|-7---7---7-----------------------|

  [Chorus 3/Outro]
G|---------------------------------|---------------------------------|---------------------------------|
D|-4-------4-----------------------|---------------------------------|-4-------------------------------|
A|-----------------5---5-------7---|-7---------------5-------5---7---|-----------------5---5-------7---|
E|---------------------------------|---------------------7-----------|---------------------------------|


G|---------------------6-----------|---------------------------------|---------------------------------|
D|-----4-------7-------------------|-4-------------------------------|---------------------------------|
A|-7-------------------------------|-----------------5---5-------7---|-7---------------5-------5---7---|
E|---------------------------------|---------------------------------|---------------------7-----------|


G|---------------------------------|---------------------6-----------|---------------------------------|
D|-4-------------------------------|-----4-------7-------------------|-4-------------------------------|
A|-----------------5---5-------7---|-7-------------------------------|-----------------5---5-------7---|
E|---------------------------------|---------------------------------|---------------------------------|


G|---------------------------------|---------------------------------|---------------------6-----------|
D|---------------------------------|-4-------------------------------|-----4-------7-------------------|
A|-7---------------5-------5---7---|-----------------5---5-------7---|-7-------------------------------|
E|---------------------7-----------|---------------------------------|---------------------------------|


G|---------------------------------|---------------------------------|---------------------------------|
D|-4-------------------------------|---------------------------------|-4-------------------------------|
A|-----------------5---5-------7---|-7---------------5-------5---7---|-----------------5---5-------7---|
E|---------------------------------|---------------------7-----------|---------------------------------|


G|---------------------6-----------|---------------------6-----------|---------------------6-----------|
D|-----4-------7-------------------|-----4-------7-------------------|-----4-------7-------------------|
A|-7-------------------------------|-7-------------------------------|-7-------------------------------|
E|---------------------------------|---------------------------------|---------------------------------|


G|---------------------------------|--------|--------|
D|---------------------------------|--------|--------|
A|-7-------------------------------|--------|--------|
E|---------------------------------|--------|--------|



***********************************
| /   Slide up
| h   Hammer on
***********************************

            
            
Suggest correction
Creating personal tab
Creating personal tab
You can edit any tab online and save it as your Personal.

You can edit, replace or remove any tab part or add personal notes – all changes will be seen only by you.

Personal tabs can be accessed anytime from any device, even offline.
Learn more »
Give kudos to tab author, rate the tab!
1 2 3 4 5
comments
print report bad tab
guest
You may want to rate the tab now too:
select rating
Wanna post a correction for this tab? Suggest correction