Oops, an error
Loading. Please wait.
We have an official No More Mr Nice Guy tab made by UG professional guitarists. Check out the tab »
×
24,498 views 3 this week
2 commentsread comments
1 2 3 4 5
x 6
add to favorites
×
Save as Personal and add changes to this tab that will be seen only by you. Learn more ›
×
You can save this tab as Personal to edit and correct it or add notes. All changes will be seen only by you. Learn more »
launch autoscroll
font size
0
reset
how to read this tab
guitar tuner
backing track
0:00
0:00
edit
Autoscroll
slow
fast
+/-
esc
set tempo
stop
Author
Difficulty
No More Mr. Nice Guy - Alice Cooper

Intro

 |-----------------|-----------------|---------------------|
 |--10---10---8----|---8---8---------|---------------------|
 |-9----9------9---|--7---7----------|---------7-----------|  4x
 |-----------------|-----------------|--5-s-9-----9-p-7----|
 |-----------------|-----------------|------------------10-|
 |-----------------|-----------------|---------------------|



 |-----------------|---------------------|------------------|-------------|
 |-------------10b-|-----------------10b-|--------------10b-|-------------|
 |--9b--9b-r7------|---9b-9b--9b-r7------|--9b--9b-r7-------|--7-h-9--7---|
 |-----------------|---------------------|------------------|-----------7-|
 |-----------------|---------------------|------------------|-------------|
 |-----------------|---------------------|------------------|-------------|

Verse

A                    C#m

I used to be such a sweet, sweet thing

          G             Bm   D  E

Till they got a hold of me

A                    C#m

I opened doors for little old ladies

G                       Bm   D  E

I helped the blind to see

F#m                           Bm

I got no friends 'cause they read the papers

D              E                     F#m

They can't be seen  (fill)   with me


 |-----------------|
 |-----------------|
 |------7-s-11--9--|
 |-7h9-------------|
 |-----------------|
 |-----------------|




                Bm

And I'm gettin' real shot down

          D      E

And I'm feelin' mean


F#m             E

No more Mister Nice Guy
No more Mister Clean
No more Mister Nice Guy
They say he's sick, he's obscene

(Intro lick) 4x

I got no friends 'cause they read the papers
They can't be seen with me
And I'm feelin' real shot down
And I'm, 
gettin' mean

No more Mister Nice Guy
No more Mister Clean
No more Mister Nice Guy
They say he's sick, he's obscene

My dog bit me on the leg today
My cat clawed my eye
Mom's been thrown out of the social circles
And dad has to hide
I went to church incognito
When everybody rose,
The Reverend Smithy
He recognized me and punched me in the nose

He said, no more Mister Nice Guy
No more Mister Clean
No more Mister Nice Guy
He said you're sick, you're obscene

He said, no more Mister Nice Guy
No more Mister Clean
No more Mister Nice Guy
He said you're sick, you're obscene, eeeene, eeeene

s = slide
b = bend
r = release
h = hammer on
p = pull off

            
            
Suggest correction
Creating personal tab
Creating personal tab
You can edit any tab online and save it as your Personal.

You can edit, replace or remove any tab part or add personal notes – all changes will be seen only by you.

Personal tabs can be accessed anytime from any device, even offline.
Learn more »
comments
print report bad tab
2 comments total.
0 reply
80'smetaladdict 565 Jul 16, 2008 12:52 PM

good tab but fix it up a little and put up the whole tab instead of the words

its easy to follow but its all wrong when u head to the chorus

0 reply
bladedguitar66 219 Jun 11, 2009 07:33 AM

A lot of it was wrong. I liked that you had the lyrics, though.

guest
You may want to rate the tab now too:
select rating
Wanna post a correction for this tab? Suggest correction