Oops, an error
Loading. Please wait.
We have an official No More Mr Nice Guy tab made by UG professional guitarists. Check out the tab »
×
54,436 views 51 this week
8 commentsread comments
1 2 3 4 5
x 23
add to favorites
×
Save as Personal and add changes to this tab that will be seen only by you. Learn more ›
×
You can save this tab as Personal to edit and correct it or add notes. All changes will be seen only by you. Learn more »
launch autoscroll
font size
0
reset
how to read this tab
guitar tuner
backing track
0:00
0:00
edit
Autoscroll
slow
fast
+/-
esc
set tempo
stop
Author
(Rhythm Guitar) 
(Michael Bruce)
e|--------------------------------------|
B|-10--10--8---8--8---------------------|
G|--9---9--9---7--7---0------7----------| (4x)
D|--7---7--7---7--7------/9-----9p7p0---|
A|--0-----------------------------------|
E|--------------------------------------|

(Lead Guitar) 
(Glen Buxton)
e|--------------------------------------------------------|
B|-----------------10b12--------------------------10b12---|
G|-9b11---11r9--7----------9b11--9b11--9b11r9--7----------|
D|--------------------------------------------------------|
A|--------------------------------------------------------|
E|--------------------------------------------------------|

e|------------------------------------|
B|---------------10b12r10-------------|
G|-9b11--11r9-7------------9b11r9--7--|
D|------------------------------------|
A|------------------------------------|
E|------------------------------------|

 “I used to be such a sweet, sweet thing 'Til they got a hold of me.
 I opened doors for little old ladies, I helped the blind to see.”

(Lead Guitar)
e|-----------------------------------|-------------------------------------------------|
B|-----------------------------------|-------------------------------------------------|
G|-9b11r9-----------------4--/7---9--|-9b11r9------9b11r9------9b11r9--------4--/7--9--|
D|---------7----6----5---------------|---------7-----------6------------5--------------|
A|-----------------------------------|-------------------------------------------------|
E|-----------------------------------|-------------------------------------------------|

(Rhythm Guitar)
e|-----------------------------------|-------------------------------------------------|
B|-----------------------------------|-------------------------------------------------|
G|---------2----6---------4---7---9--|---------2-----------6-----------------4---7--9--|
D|---------2----6----5----4---7---9--|---------2-----------6------------5----4---7--9--|
A|---------0----4----5----2---5---7--|---------0-----------4------------5----2---5--7--|
E|-------------------3---------------|----------------------------------3--------------|

 “I got no friends 'cause they read the papers.
 They can't be seen…”

(Lead Guitar)
e|---------------------------------------------------------|
B|---------------------------------------------------------|
G|----------------------------------------------9--11--9---|
D|----------------------------------------9h11-------------|
A|---------------------------------------------------------|
E|---------------------------------------------------------|

(Rhythm Guitar)
e|---------------------------------------------------------|
B|------------4---4---4---4-/7---7---7/9-------------------|
G|-----3---3--4---4---4---4-/7---7---7/9-------------------|
D|-4---4---4--4---4---4---4-/7---7---7/9-------------------|
A|-4---4---4--2---2---2---2-/5---5---5/7-------------------|
E|-2---2---2-----------------------------------------------|

 “…with me and I'm gettin' real shot down
 And I'm feeling mean.”

(Lead Guitar)
e|-------------------------------------------------------------|
B|-----------------------------------------------------12b14---|
G|----------------------------------------------9--11----------|
D|----------------------------------------9h11-----------------|
A|-------------------------------------------------------------|
E|-------------------------------------------------------------|

(Rhythm Guitar)
e|-------------------------------------------------------------|
B|------------4---4---4---4-/7---7---7/9-----------------------|
G|-----3---3--4---4---4---4-/7---7---7/9-----------------------|
D|-4---4---4--4---4---4---4-/7---7---7/9-----------------------|
A|-4---4---4--2---2---2---2-/5---5---5/7-----------------------|
E|-2---2---2---------------------------------------------------|

 “No more Mister Nice Guy,
 No more Mister Clean”

(Lead Guitar)
e|------------------------------------------------------------------|
B|--------------------------------12--b14----(14)-------------------|
G|------------------------------------------------------------------|
D|------------------------------------------------------------------|
A|------------------------------------------------------------------|
E|------------------------------------------------------------------|

(Rhythm Guitar)
e|---------------------------------------------------------------9--|
B|-10-------10--9-----------10----10-------10--9-------------10--9--|
G|--9--11----9--9--11--9----11-----9--11----9--9--11--9--11---9-----|
D|-----11----------11--9----12--------11----------11--9--11---------|
A|------------------------------------------------------------------|
E|------------------------------------------------------------------|

 “No more Mister Nice Guy,
 They say he's sick, he's obscene.”

(Lead Guitar)
e|------------------------------------------------------------------|
B|-12b14----(14)------------------12b14----(14)---------------------|
G|------------------------------------------------------------------|
D|------------------------------------------------------------------|
A|------------------------------------------------------------------|
E|------------------------------------------------------------------|

(Rhythm Guitar)
e|---------------------------------------------------------------9--|
B|-10-------10--9-----------10----10-------10--9-------------10--9--|
G|--9--11----9--9--11--9----11-----9--11----9--9--11--9--11---9-----|
D|-----11----------11--9----12--------11----------11--9--11---------|
A|------------------------------------------------------------------|
E|------------------------------------------------------------------|

(Rhythm Guitar) 
(alone)
e|---------------------------------------|
B|-10--10--8---8--8----------------------|
G|--9---9--9---7--7---0------7-----------|
D|--7---7--7---7--7------/9-----9p7--0---|
A|--0------------------------------------|
E|---------------------------------------|

(Lead Guitar)
e|------------------------------------------------|
B|-----------------------------14b15--14b15--14~~~|
G|---------------------12--14---------------------|
D|-----------------14-----------------------------|
A|------------------------------------------------|
E|------------------------------------------------|

(Rhythm Guitar)
e|--------------------------------------|
B|-10--10--8---8--8---------------------|
G|--9---9--9---7--7---0------7----------|
D|--7---7--7---7--7------/9-----9p7p0---|
A|--0-----------------------------------|
E|--------------------------------------|

(Rhythm Guitar) 
(alone)
e|--------------------------------------|
B|-10--10--8---8--8---------------------|
G|--9---9--9---7--7---0------7----------|
D|--7---7--7---7--7------/9-----9p7p0---|
A|--0-----------------------------------|
E|--------------------------------------|

(Rhythm Guitar)
e|-------------------------------------------------|
B|------------------17b19--17b19r17----------------|
G|-----------------------------------16b18r16------|
D|---------------------------------------------16--|
A|-------------------------------------------------|
E|-------------------------------------------------|

(Rhythm Guitar)
e|---------------------------------------|
B|-10--10--8---8--8----------------------|
G|--9---9--9---7--7---0------7-----------|
D|--7---7--7---7--7------/9-----9p7--0---|
A|--0------------------------------------|
E|---------------------------------------|

 “I got no friends 'cause they read the papers.
 They can't be seen…”

(Lead Guitar)
e|---------------------------------------------------------|
B|---------------------------------------------------------|
G|----------------------------------------------9--11--9---|
D|----------------------------------------9h11-------------|
A|---------------------------------------------------------|
E|---------------------------------------------------------|

(Rhythm Guitar)
e|---------------------------------------------------------|
B|------------4---4---4---4-/7---7---7/9-------------------|
G|-----3---3--4---4---4---4-/7---7---7/9-------------------|
D|-4---4---4--4---4---4---4-/7---7---7/9-------------------|
A|-4---4---4--2---2---2---2-/5---5---5/7-------------------|
E|-2---2---2-----------------------------------------------|

 “…with me and I'm gettin' real shot down
 And I'm feeling mean.”

(Lead Guitar)
e|------------------------------------------------------------|
B|------------------------------------------------------------|
G|------------------------------------------------------------|
D|---------------------------------------------7--9--9b11-----|
A|----------------------------------------7h9-----------------|
E|------------------------------------------------------------|

(Rhythm Guitar)
e|------------------------------------------------------------|
B|------------4---4---4---4-/7---7---7/9----------------------|
G|-----3---3--4---4---4---4-/7---7---7/9----------------------|
D|-4---4---4--4---4---4---4-/7---7---7/9----------------------|
A|-4---4---4--2---2---2---2-/5---5---5/7----------------------|
E|-2---2---2--------------------------------------------------|

 “No more Mister Nice Guy,
 No more Mister Clean”

(Lead Guitar)
e|------------------------------------------------------------------|
B|--------------------------------12--b14----(14)-------------------|
G|------------------------------------------------------------------|
D|------------------------------------------------------------------|
A|------------------------------------------------------------------|
E|------------------------------------------------------------------|

(Rhythm Guitar)
e|---------------------------------------------------------------9--|
B|-10-------10--9-----------10----10-------10--9-------------10--9--|
G|--9--11----9--9--11--9----11-----9--11----9--9--11--9--11---9-----|
D|-----11----------11--9----12--------11----------11--9--11---------|
A|------------------------------------------------------------------|
E|------------------------------------------------------------------|

 “No more Mister Nice Guy,
 They say he's sick, he's obscene.”

(Lead Guitar)
e|------------------------------------------------------------------|
B|-12b14----(14)------------------12b14----(14)---------------------|
G|------------------------------------------------------------------|
D|------------------------------------------------------------------|
A|------------------------------------------------------------------|
E|------------------------------------------------------------------|

(Rhythm Guitar)
e|---------------------------------------------------------------9--|
B|-10-------10--9-----------10----10-------10--9-------------10--9--|
G|--9--11----9--9--11--9----11-----9--11----9--9--11--9--11---9-----|
D|-----11----------11--9----12--------11----------11--9--11---------|
A|------------------------------------------------------------------|
E|------------------------------------------------------------------|

 “My dog bit me on the leg today.
 My cat clawed my eyes.
 Ma's been thrown out of the social circle,
 And dad has to hide.”

(Lead Guitar)
e|---------9-------------9-----------7-----------|
B|------10------------9------------8-----7---9---|
G|----9------------9------------7--------7---9---| (2x)
D|-11----------11------------9-----------9---9---|
A|-----------------------------------------------|
E|-----------------------------------------------|

 “I went to church incognito.
 When everybody rose, the Reverend Smith,
 He recognized me,
 And punched me in the nose.”

(Lead Guitar)
e|-------------------------------------------------|
B|-------------------------------------------------|
G|-9b11r9------9b11r9------9b11r9--------4--/7--9--|
D|---------7-----------6------------5--------------|
A|-------------------------------------------------|
E|-------------------------------------------------|

(Rhythm Guitar)
e|-------------------------------------------------|
B|-------------------------------------------------|
G|---------2-----------6-----------------4---7--9--|
D|---------2-----------6------------5----4---7--9--|
A|---------0-----------4------------5----2---5--7--|
E|----------------------------------3--------------|

“No more Mister Nice Guy,
No more Mister Clean,
No more Mister Nice Guy,
They say you’re sick, you’re obscene
No more Mister Nice Guy,
No more Mister Clean,
No more Mister Nice Guy,
They say you’re sick, you’re ob...”

(Lead Guitar)
e|------------------------------------------------------------------|
B|-12b14----(14)------------------12b14----(14)---------------------|
G|------------------------------------------------------------------|
D|------------------------------------------------------------------|
A|------------------------------------------------------------------|
E|------------------------------------------------------------------|

(Rhythm Guitar)
e|---------------------------------------------------------------9--|
B|-10-------10--9-----------10----10-------10--9-------------10--9--|
G|--9--11----9--9--11--9----11-----9--11----9--9--11--9--11---9-----|
D|-----11----------11--9----12--------11----------11--9--11---------|
A|------------------------------------------------------------------|
E|------------------------------------------------------------------|

(Rhythm Guitar)
e|------------9--------------9--12----|
B|--------10--9----------10--9---9----|
G|-9--11---9------9--11---9-----------|
D|-9--11----------9--11---------------|
A|------------------------------------|
E|------------------------------------|



************************************

| p    Pull-off
| /    Slide up
| b    Bend
| r    Release
| h    Hammer-on
| (n)  Ghost note
| ~    Vibrato

************************************

            
            
Suggest correction
Creating personal tab
Creating personal tab
You can edit any tab online and save it as your Personal.

You can edit, replace or remove any tab part or add personal notes – all changes will be seen only by you.

Personal tabs can be accessed anytime from any device, even offline.
Learn more »
comments
print report bad tab
8 comments total. Showing first comments.
0 reply
Icarus007 10 Oct 22, 2008 06:43 PM

i played through havent gotten it memorized but sounds great

0 reply
bladedguitar66 219 Jun 11, 2009 07:29 AM

Sorry, but some parts of this are wrong. Some are right, too. Keep trying. 4 stars for effort. (:

0 reply
~AlbertDaGreat~ 10 Mar 25, 2011 01:12 PM

Not 100% but definetely the most accurate on here.

guest
You may want to rate the tab now too:
select rating
Wanna post a correction for this tab? Suggest correction