Oops, an error
Loading. Please wait.
We have an official Poison tab made by UG professional guitarists. Check out the tab »
×
5,045 views 63 this week
1 commentread comment
1 2 3 4 5
x 10
add to favorites
×
Save as Personal and add changes to this tab that will be seen only by you. Learn more ›
×
You can save this tab as Personal to edit and correct it or add notes. All changes will be seen only by you. Learn more »
launch autoscroll
font size
0
reset
guitar tuner
backing track
0:00
0:00
edit
Autoscroll
slow
fast
+/-
esc
set tempo
stop
Author
Poison- Alice Cooper

Tabbed by: Madhatterman
Tuning: Standard

The other tabs on here looked a little hard to follow, 
so I put my own version which I think is right and 
I've put a bit of structure to try make it easier 
to follow :)  

Intro
G|-------|-------|---------------------|---------------|
D|-------|-------|-------------------x3|---------------|
A|-5--5--|-5--5--|----------5---5-5----|--------5~-----|
E|-------|-------|-6---6-6-------------|-6~------------|


Verse

 Your cruel...  Your blood...   One look...    My Pain...
G|-------------|---------------|---------------|---------------|
D|-------------|---------------|---------------|---------------|
A|-5~----------|----------3~---|----------6~---|----------5~---|
E|------5-6~---|-0-1~---3------|-0-3~---3------|-5-6~---5------|

G|-----------------|
D|-----------------|
A|-5-5-5-5-5-5-5-5-|
E|-----------------|

Chorus
   1 + 2 + 3 + 4 +  1 + 2 + 3 + 4 +...
G|----------------|----------------|----------------|---------------|
D|-5~-------------|----------------|-------6~-------|---------------|
A|-------6~-------|-------8~-------|-3~-------------|-6~------------|
E|----------------|-6~-------------|----------------|-------6~------|

G|----------------|----------------|----------------|---------------|
D|----------------|----------------|----------------|---------------|
A|----------------|-3~-------------|-5~-------------|-8~------------|
E|-5~----1~-------|-------3~-------|-------6~-------|-------8~------|

G|----------------|----------------| (x4)
D|----------------|----------------|
A|-5~-------------|-8~-------------|
E|-------6~-------|-------8~-------|

G|----------------|
D|----------------|
A|-5~-------------|
E|----------------|

(Verse)
(Chorus)

Solo
G|----------------|----------------|--------------------|
D|----------------|----------------|-----------------x2-|
A|-5~-------------|-5~-------------|---------5---5-5----|
E|----------------|----------------|-6--6-6-------------|

 One look...    My Pain...
G|---------------|---------------|
D|---------------|---------------|
A|----------6~---|----------5~---|
E|-0-3~---3------|-5-6~---5------|

G|-----------------|
D|-----------------|
A|-5-5-5-5-5-5-5-5-|
E|-----------------|

Chorus
   1 + 2 + 3 + 4 +  1 + 2 + 3 + 4 +...
G|----------------|----------------|----------------|---------------|
D|-5~-------------|----------------|-------6~-------|---------------|
A|-------6~-------|-------8~-------|-3~-------------|-6~------------|
E|----------------|-6~-------------|----------------|-------6~------|

G|----------------|----------------|----------------|---------------|
D|----------------|----------------|----------------|---------------|
A|----------------|-3~-------------|-5~-------------|-8~------------|
E|-5~----1~-------|-------3~-------|-------6~-------|-------8~------|

G|----------------|----------------| (x4)
D|----------------|----------------|
A|-5~-------------|-8~-------------|
E|-------6~-------|-------8~-------|

G|-----------------|
D|-----------------|
A|-5-5-5-5-5-5-5-5-|
E|-----------------|

G|----------------|----------------| This plays through the repeated chorus
D|----------------|----------------| to the end of the song
A|-5~-------------|-8~-------------|
E|-------6~-------|-------8~-------|

| /  slide up
| \  slide down
| h  hammer-on
| p  pull-off
| ~  vibrato
| +  harmonic
| x  Mute note
=============================================================================

            
            
Suggest correction
Creating personal tab
Creating personal tab
You can edit any tab online and save it as your Personal.

You can edit, replace or remove any tab part or add personal notes – all changes will be seen only by you.

Personal tabs can be accessed anytime from any device, even offline.
Learn more »
comments
print report bad tab
1 comment total.
0 reply
SWIFTERS 20 Jun 03, 2017 06:21 AM

The end of the 3rd chorus at 3:26 is completely wrong

guest
You may want to rate the tab now too:
select rating
Wanna post a correction for this tab? Suggest correction