Oops, an error
Loading. Please wait.

Reflected tab

385 views 1 this week
no commentswrite comment
1 2 3 4 5
2 more votes to show rating
add to favorites
×
Save as Personal and add changes to this tab that will be seen only by you. Learn more ›
×
You can save this tab as Personal to edit and correct it or add notes. All changes will be seen only by you. Learn more »
launch autoscroll
font size
0
reset
how to read this tab
guitar tuner
edit
Autoscroll
slow
fast
+/-
esc
set tempo
stop
Band: Alice Cooper
Song: Reflected
Album: Pretties For You
Year: 1969
Tabbed by DoteStudios
Email is undermywheels71@gmails.com

Note: It is very difficult to hear Mike/rhythm guitarist on this song, sometimes live he 
along with the notes that Alice sings so I assume it's the somewhat the same as in the recording.

Keys
b = bend
r = release
\ = slide up neck 
/ = slide down neck
h = hammer-on
p = pull-off
~ = vibrato

Lead Guitar (Glen Buxton)
E--------------------------------------------------------------------|
B--------------------------------------------------------------------|
G--------------------------------------------------------------------|
D--------------------------------------------------------------------|
A-5/7~~~---7----9--9--9--10~~~---10---10--10--9--10--9--7--10--9--7--|
E--------------------------------------------------------------------|

E------------------------------------------------|
B------------------------------------------------|
G-------------------7h8h9--7h8h9--7h8h9--7h8h9---|
D-7--8--9--7--8--9-------------------------------|
A------------------------------------------------|
E------------------------------------------------|

Lead Guitar
E---------------------------------------------------------------|
B---------------5-----------------------------------------------|
G-----------/6--------------------6----------------5------------| 2x
D-/7----------------5---------/6-----4---------/5-----3---------|
A---------------------------------------------------------------|
E---------------------------------------------------------------|

						“Look upstanding with your”
E-----------------------------------------------------------------------|
B-----------------------------------------------------------------------|
G-----------------------------------------------------------------------|
D-----------------------------------------------------------------------|
A-7--7--7--7--7--7--7--7--7--7--7--7--7--7--7--7--7--7--7--7--7--7--7---|
E-----------------------------------------------------------------------|

 “head held high		You will be reflected”
E---------------------------------------------------------|
B---------------------------------------------------------|
G---------------------------------------------------------|
D---------------------------------------------------------|
A-7--7--7--7--7-7-7-7-7-7--5--5--5--5--5--5--5--5--5--5---|
E---------------------------------------------------------|
Lead Guitar
E--------------------------------------------|
B--------------------------------------------|
G---------------------7b9---9r7p5------------|
D----------------------------------7---------|
A--------------------------------------------|
E--------------------------------------------|

Rhythm Guitar (Michael Bruce in drop D tuning)
E--------------------------------------------|
B--------------------------------------------|
G--------------------------------------------|
D-7-----7-----7--5-----------------------7---|
A-7-----7-----7--5-----------------------7---|
D-7-----7-----7--5---------------------------|

“You look outstanding with your eyes in disguise    Just beyond your”
E---------------------------------------------------------------------|
B---------------------------------------------------------------------|
G---------------------------------------------------------------------|
D---------------------------------------------------------------------|
A-7--7--7--7--7--7--7--7--7--7--7--7--7-7-7-7-7-7-5--5--5--5--5--5--5-|
E---------------------------------------------------------------------|

		“mask-qes…”
Lead Guitar
E--------------------------------------------------|
B--------------------------------------------------|
G---------------------------7b9--9r7p5-------------|
D---------------------------------------7----------|
A--------------------------------------------------|
E--------------------------------------------------|

Rhythm Guitar
E--------------------------------------------------|
B--------------------------------------------------|
G--------------------------------------------------|
D-5---5---5---5--5---7----7--7--7--7--7------------|
A-5---5---5---5--5---7----7--7--7--7--7-------0----|
D-5---5---5---5--5---7----7--7--7--7--7------------|

“Holy, Hollywood (he), it's devine”
Rhythm Guitar
E-----------------------------------------|
B-----------------------------------------|
G-----------------------------------------|
D------2-------2---------2-------2--------|
A-2----2----2--2----0----2----2--2----2---|
D-2---------2-------0---------2-------2---|

Lead Guitar
E------------------------------------------7-------------------------7\-|
B----------------------------------7h9h10-----10p9p7-----7---7h9h10-----|
G-11r9p7-----7--------------7h8h9---------------------9-----------------|
D---------9-----7---8---9-----------------------------------------------|
A-----------------------------------------------------------------------|
E-----------------------------------------------------------------------|

“I'm surely glad, I'm surely all the time”
Rhythm Guitar
E-----------------------------------------|
B-----------------------------------------|
G-----------------------------------------|
D------2-------2---------2-------2--------|
A-2----2----2--2----0----2----2--2----2---|
D-2---------2-------0---------2-------2---|

Lead Guitar
E-16r14---12----------------12----------------------------------------|
B-------------12h15p12--14------15p14p12------------------------------|
G-----------------------------------------14~~--14b16--14b16--14b16---|
D---------------------------------------------------------------------|
A---------------------------------------------------------------------|
E---------------------------------------------------------------------|

E--------------------------|
B--------------------------|
G-16r14p12-------12--------|
D-----------14-------14\---|
A--------------------------|
E--------------------------|

“And even though I'm you will always hear”
Rhythm Guitar
E-------------------------------------------------------------------|
B-------------------------------------------------------------------|
G-------------------7-----5---3--5--3----3--3--3--3-----------------|
D--5--7----5--7-----7-----5---3--5--3----3--3--3--3--(repeat chord)-|
A--5--7----5--7-----5-----3---1--3--1----1--1--1--1-----------------|
D--5--7----5--7-----------------------------------------------------|

1:16
Lead Guitar (in the background)
E-------------------------------------------------------------------|
B-------------------------------------------------------------------|
G-------------------------------------------------------------------|
D-----------------------------------------9--------7--------5-------|
A-------------------------------------------------------------------|
E-------------------------------------------------------------------|

Solo 1
Lead Guitar
E-----------------------------------------------------------------------|
B-----------------------------------------------------------10----------|
G---------------------------------------9---11--12----11--------12--11--|
D-/7------9--9--9--9--7------7----9/11----------------------------------|
A------------------------10---------------------------------------------|
E-----------------------------------------------------------------------|

E-------8--7------8--7-------------8p7p0--8p7p0---------8--10/11--12---|
B-10----------10--------10--------------------------10-----------------|
G-----------------------------9----------------------------------------|
D----------------------------------------------------------------------|
A----------------------------------------------------------------------|
E----------------------------------------------------------------------|

E--10--11--12--12/15----12--15--15/17--15--16--17---17b19--hold--19r17-|
B----------------------------------------------------------------------|
G----------------------------------------------------------------------|
D----------------------------------------------------------------------|
A----------------------------------------------------------------------|
E----------------------------------------------------------------------|

“Very rarely worry upmost constantly            Could you be receptive”
E---------------------------------------------------------------------|
B---------------------------------------------------------------------|
G---------------------------------------------------------------------|
D---------------------------------------------------------------------|
A-7--7--7--7--7--7--7--7--7--7--7--7--7-7-7-7-7-7-5--5--5--5--5--5--5-|
E---------------------------------------------------------------------|

Lead Guitar
E--------------------------------------------|
B--------------------------------------------|
G---------------------7b9---9r7p5------------|
D----------------------------------7---------|
A--------------------------------------------|
E--------------------------------------------|

Rhythm Guitar
E--------------------------------------------|
B--------------------------------------------|
G--------------------------------------------|
D-7-----7-----7--5----------------------7----|
A-7-----7-----7--5----------------------7----|
D-7-----7-----7--5---------------------------|

“Our life's outstanding in a shower please Wet my skins a plenty”
E---------------------------------------------------------------------|
B---------------------------------------------------------------------|
G---------------------------------------------------------------------|
D---------------------------------------------------------------------|
A-7--7--7--7--7--7--7--7--7--7--7--7--7-7-7-7-7-7-5--5--5--5--5--5--5-|
E---------------------------------------------------------------------|

Lead Guitar
E--------------------------------------------------|
B--------------------------------------------------|
G---------------------------7b9--9r7p5-------------|
D---------------------------------------7----------|
A--------------------------------------------------|
E--------------------------------------------------|

Rhythm Guitar
E--------------------------------------------------|
B--------------------------------------------------|
G--------------------------------------------------|
D-5---5---5---5--5---7----7--7--7--7--7------------|
A-5---5---5---5--5---7----7--7--7--7--7------------|
D-5---5---5---5--5---7----7--7--7--7--7------------|

"Baby what a day I love our town”
Rhythm Guitar
E-----------------------------------------|
B-----------------------------------------|
G-----------------------------------------|
D------2-------2---------2-------2--------|
A-2----2----2--2----0----2----2--2----2---|
D-2---------2-------0---------2-------2---|

Lead Guitar
E-------------------------7---------------------7--10p9p7------7--7h9-|
B--------------------7h9-----10p9p7-----7h9h10-------------10---------|
G-9--11r9p7--7--7h9------------------9--------------------------------|
D---------------------------------------------------------------------|
A---------------------------------------------------------------------|
E---------------------------------------------------------------------|

E-10--10--/12----|
B----------------|
G----------------|
D----------------|
A----------------|
E----------------|

“I'm surely glad I'm surely all around”
Rhythm Guitar
E-----------------------------------------|
B-----------------------------------------|
G-----------------------------------------|
D------2-------2---------2-------2--------|
A-2----2----2--2----0----2----2--2----2---|
D-2---------2-------0---------2-------2---|

Lead Guitar
E-15p14------12--------------------------12---------------------------|
B--------15------15p14p12------12h14h15--------15p14p12---------------|
G--------------------------14----------------------------14-----14b16-|
D---------------------------------------------------------------------|
A---------------------------------------------------------------------|
E---------------------------------------------------------------------|

E--------------------------|
B--------------------------|
G-14b16--14b16--14b16~~~~--|
D--------------------------|
A--------------------------|
E--------------------------|

“And even since I knew - it all so clear”
Rhythm Guitar
E-------------------------------------------------------------------|
B-------------------------------------------------------------------|
G-------------------7-----5---3--5--3----3--3--3--3-----------------|
D--5--7----5--7-----7-----5---3--5--3----3--3--3--3--(repeat chord)-|
A--5--7----5--7-----5-----3---1--3--1----1--1--1--1-----------------|
D--5--7----5--7-----------------------------------------------------|

Solo 2
Lead Guitar
E---------------------------------|
B---------------------------------|
G-----------------7b9--9r7p5------| 7x
D-7----7----7p5---------------7---|
A-7----7----7p5-------------------|
E---------------------------------|

E----------------------|
B----------------------|
G----------------------|
D-7----7----7----------|
A-7----7----7------0---|
E----------------------|

“You will be reflected, you will be reflected, you will be reflected
You will be reflected, you will be reflected…”
Rhythm Guitar
E-------------------------------------------------|
B-------------------------------------------------|
G-7--7--7--7--7--7--7--7--9--9--9--9--9--9--9--9--| 3x
D-7--7--7--7--7--7--7--7--9--9--9--9--9--9--9--9--|
A-------------------------------------------------|
D-------------------------------------------------|
On the 3rd time don’t time don’t play the second chord.
The chords change when the vocalist changes from Mike to Alice

“Reflecteee…”
E-----------------------------------------|
B-----------------------------------------|
G--9--------------------------------------|
D--7--------------------------------------|
A--7--------------------------------------|
D-----------------------------------------|

Lead Guitar
E-----------------------------|
B-----------------------------|
G-9b11----9b11--9~~9~~9~~9~~9…| repeat during
D-----------------------------| the fade out of
A-----------------------------| the singing
E-----------------------------|

“…eeeeeeed”
Lead and Rhythm Guitar
E-------------------------------------|
B-------------------------------------|
G-------------------------9--9--9--9--| play during the
D-------------7--7--7--7--7--7--7--7--| fade in
A-7--7--7--7--7--7--7--7--7--7--7--7…-|
E-------------------------------------|
Strum the last chord until the end

            
            
Suggest correction
Creating personal tab
Creating personal tab
You can edit any tab online and save it as your Personal.

You can edit, replace or remove any tab part or add personal notes – all changes will be seen only by you.

Personal tabs can be accessed anytime from any device, even offline.
Learn more »
Give kudos to tab author, rate the tab!
1 2 3 4 5
comments
print report bad tab
guest
You may want to rate the tab now too:
select rating
Wanna post a correction for this tab? Suggest correction