Oops, an error
Loading. Please wait.

Better Off Alone tab

version 5
version 5

Whole song

Interactive

1,447 views 1 this week
no commentswrite comment
1 2 3 4 5
x 3
add to favorites
×
Save as Personal and add changes to this tab that will be seen only by you. Learn more ›
×
You can save this tab as Personal to edit and correct it or add notes. All changes will be seen only by you. Learn more »
launch autoscroll
font size
0
reset
how to read this tab
guitar tuner
edit
Autoscroll
slow
fast
+/-
esc
set tempo
stop
-------------------------------------------------------------------------------
                             Alice Deejay - Better Off Alone
-------------------------------------------------------------------------------
Tabbed by: selfridr
Version my cover band played the song.

Tuning: Drop D

Rhythm 
e---x--x--x--x----|
b---5--4--9--7----|
g---4--3--8--6----|
d---2--1--6--4----|
a---2--1--6--4----|
e---2--1--6--4----|

Lead
e-----------------|
B--12~----11-12---|
G-----------------|x2
D-----------------|
A-----------------|
E-----------------|

e-------------11/14-14-11---------------11h12-12-11--|
B--12--12-9-------------------12--12-9---------------|
G----------------------------------------------------|
D----------------------------------------------------|x2
A----------------------------------------------------|
E----------------------------------------------------|

e-------------------------11/14-14-11--------|
B----12-12--9-12-12-11-----------------------|
G----------------------11--------------------|
D--------------------------------------------|
A--------------------------------------------|
E--------------------------------------------|

e-------------------------11/12-12-11--------|
B----12-12--9-12-12-11-----------------------|
G----------------------11--------------------|x2
D--------------------------------------------|
A--------------------------------------------|
E--------------------------------------------|

Then we repeated everything again with lyrics. Used it as an intro to Everlong.

| /  slide up
| h  hammer-on
| ~  vibrato
| x  Mute note
===============================================================================

            
            
Suggest correction
Creating personal tab
Creating personal tab
You can edit any tab online and save it as your Personal.

You can edit, replace or remove any tab part or add personal notes – all changes will be seen only by you.

Personal tabs can be accessed anytime from any device, even offline.
Learn more »
Give kudos to tab author, rate the tab!
1 2 3 4 5
comments
print report bad tab
guest
You may want to rate the tab now too:
select rating
Wanna post a correction for this tab? Suggest correction