Oops, an error
Loading. Please wait.

Died tab

version 3
version 3

Whole song

  • Includes intrro, verses, pre-choruses, choruses, and outro.

Interactive

52 views 1 this week
no commentswrite comment
1 2 3 4 5
3 more votes to show rating
add to favorites
×
Save as Personal and add changes to this tab that will be seen only by you. Learn more ›
×
You can save this tab as Personal to edit and correct it or add notes. All changes will be seen only by you. Learn more »
launch autoscroll
font size
0
reset
how to read this tab
guitar tuner
edit
Autoscroll
slow
fast
+/-
esc
set tempo
stop
About this tab version
Includes intrro, verses, pre-choruses, choruses, and outro. Was this info helpful? Yes No
[Intro]
Eb|-----------------------------------------------------------------------|
Bb|-----------------------------------------------------------------------|
Gb|-----------------------------------------------------------------------|
Db|---12/10---10/7-7~---------7---7/5---------6-5---5-0-3-3/5-0-----------|
Ab|---10/8----8 /5-5~---------5---5/3-------5-6-5---5-0-3-3/5-0---------3-|
Db|-0-------0---------0-0-3/5---0-----0-3/5---6-5---5-0-3-3/5-0---0-3h5---|
 PM .       .         . .       .     .   

Eb|-----------------------------------------------------------------------|
Bb|-----------------------------------------------------------------------|
Gb|-----------------------------------------------------------------------|
Db|---12/10---10/7-7~---------7---7/5---------6-5---5-0-3-3/5-0---5-5br---|
Ab|---10/8----8 /5-5~---------5---5/3-------5-6-5---5-0-3-3/5-0---5-5br---|
Db|-0-------0---------0-0-3/5---0-----0-3/5---6-5---5-0-3-3/5-0---5-5br---|
 PM .       .         . .       .     .                                  

[Verse]
Eb|-----------------------------------------------------------------------|
Bb|-----------------------------------------------------------------------|
Gb|-----------------------------------------------------------------------|
Db|---12/10---10/7-7~---------7---7/5---------6-5---5-0-3-3/5-0-----------|
Ab|---10/8----8 /5-5~---------5---5/3-------5-6-5---5-0-3-3/5-0---------3-|
Db|-0-------0---------0-0-3/5---0-----0-3/5---6-5---5-0-3-3/5-0---0-3h5---|
 PM .       .         . .       .     .   

Eb|-----------------------------------------------------------------------|
Bb|-----------------------------------------------------------------------|
Gb|-----------------------------------------------------------------------|
Db|---12/10---10/7-7~---------7---7/5---------6-5---5-0-3-3/5-0---5-5br---|
Ab|---10/8----8 /5-5~---------5---5/3-------5-6-5---5-0-3-3/5-0---5-5br---|
Db|-0-------0---------0-0-3/5---0-----0-3/5---6-5---5-0-3-3/5-0---5-5br---|
 PM .       .         . .       .     .                                  

Eb|-----------------------------------------------------------------------|
Bb|-----------------------------------------------------------------------|
Gb|-----------------------------------------------------------------------|
Db|---12/10---10/7-7~---------7---7/5---------6-5---5-0-3-3/5-0-----------|
Ab|---10/8----8 /5-5~---------5---5/3-------5-6-5---5-0-3-3/5-0---------3-|
Db|-0-------0---------0-0-3/5---0-----0-3/5---6-5---5-0-3-3/5-0---0-3h5---|
 PM .       .         . .       .     .   

Eb|-----------------------------------------------------------------------|
Bb|-----------------------------------------------------------------------|
Gb|-----------------------------------------------------------------------|
Db|---12/10---10/7-7~---------7---7/5---------6-5---5-0-3-3/5-0---5-5br---|
Ab|---10/8----8 /5-5~---------5---5/3-------5-6-5---5-0-3-3/5-0---5-5br---|
Db|-0-------0---------0-0-3/5---0-----0-3/5---6-5---5-0-3-3/5-0---5-5br---|
 PM .       .         . .       .     .                        
          
Eb|-----------------------------------------------------------------------|
Bb|-----------------------------------------------------------------------|
Gb|-----------------------------------------------------------------------|
Db|---12/10---10/7-7~---------7---7/5---------6-5---5-0-3-3/5-0-----------|
Ab|---10/8----8 /5-5~---------5---5/3-------5-6-5---5-0-3-3/5-0---------3-|
Db|-0-------0---------0-0-3/5---0-----0-3/5---6-5---5-0-3-3/5-0---0-3h5---|
 PM .       .         . .       .     .   

Eb|-----------------------------------------------------------------------|
Bb|-----------------------------------------------------------------------|
Gb|-----------------------------------------------------------------------|
Db|---12/10---10/7-7~---------7---7/5---------6-5---5-0-3-3/5-0---5-5br---|
Ab|---10/8----8 /5-5~---------5---5/3-------5-6-5---5-0-3-3/5-0---5-5br---|
Db|-0-------0---------0-0-3/5---0-----0-3/5---6-5---5-0-3-3/5-0---5-5br---|
 PM .       .         . .       .     .                                  

[Pre-Chorus]
Eb|---------------------------------|
Bb|---------------------------------|
Gb|---------------------------------|
Db|-3-3-3-3-3-6-6-2-2-2-2-2-2-2-0-2-|
Ab|-3-3-3-3-3-6-6-2-2-2-2-2-2-2-0-2-|
Db|-3-3-3-3-3-6-6-2-2-2-2-2-2-2-0-2-|
 PM . . . . .       . . . . .

Eb|---------------------------------|
Bb|---------------------------------|
Gb|---------------------------------|
Db|-3-3-3-3-3-6-6-2-2-2-0-2-2-2-0-2-|
Ab|-3-3-3-3-3-6-6-2-2-2-0-2-2-2-0-2-|
Db|-3-3-3-3-3-6-6-2-2-2-0-2-2-2-0-2-|
 PM . . . . .       . .     . .

Eb|---------------------------------|
Bb|---------------------------------|
Gb|---------------------------------|
Db|-3-3-3-3-3-6-6-2-2-2-2-2-2-2-0-2-|
Ab|-3-3-3-3-3-6-6-2-2-2-2-2-2-2-0-2-|
Db|-3-3-3-3-3-6-6-2-2-2-2-2-2-2-0-2-|
 PM . . . . .       . . . . .

Eb|---------------------------------|
Bb|---------------------------------|
Gb|---------------------------------|
Db|-3-3-3-3-3-6-6-2-2-2-0-2-2-2-0-2-|
Ab|-3-3-3-3-3-6-6-2-2-2-0-2-2-2-0-2-|
Db|-3-3-3-3-3-6-6-2-2-2-0-2-2-2-0-2-|
 PM . . . . .       . .     . .

[Chorus]
Eb|-------------------|
Bb|-------------------|
Gb|-------------------|
Db|-1-1-1-----------0-|
Ab|-1-1-1-------1-0-0-| (x4)
Db|-1-1-1---1/3-----0-|
 PM . . 

[Verse]
Eb|-----------------------------------------------------------------------|
Bb|-----------------------------------------------------------------------|
Gb|-----------------------------------------------------------------------|
Db|---12/10---10/7-7~---------7---7/5---------6-5---5-0-3-3/5-0-----------|
Ab|---10/8----8 /5-5~---------5---5/3-------5-6-5---5-0-3-3/5-0---------3-|
Db|-0-------0---------0-0-3/5---0-----0-3/5---6-5---5-0-3-3/5-0---0-3h5---|
 PM .       .         . .       .     .   

Eb|-----------------------------------------------------------------------|
Bb|-----------------------------------------------------------------------|
Gb|-----------------------------------------------------------------------|
Db|---12/10---10/7-7~---------7---7/5---------6-5---5-0-3-3/5-0---5-5br---|
Ab|---10/8----8 /5-5~---------5---5/3-------5-6-5---5-0-3-3/5-0---5-5br---|
Db|-0-------0---------0-0-3/5---0-----0-3/5---6-5---5-0-3-3/5-0---5-5br---|
 PM .       .         . .       .     .                                  

Eb|-----------------------------------------------------------------------|
Bb|-----------------------------------------------------------------------|
Gb|-----------------------------------------------------------------------|
Db|---12/10---10/7-7~---------7---7/5---------6-5---5-0-3-3/5-0-----------|
Ab|---10/8----8 /5-5~---------5---5/3-------5-6-5---5-0-3-3/5-0---------3-|
Db|-0-------0---------0-0-3/5---0-----0-3/5---6-5---5-0-3-3/5-0---0-3h5---|
 PM .       .         . .       .     .   

Eb|-----------------------------------------------------------------------|
Bb|-----------------------------------------------------------------------|
Gb|-----------------------------------------------------------------------|
Db|---12/10---10/7-7~---------7---7/5---------6-5---5-0-3-3/5-0---5-5br---|
Ab|---10/8----8 /5-5~---------5---5/3-------5-6-5---5-0-3-3/5-0---5-5br---|
Db|-0-------0---------0-0-3/5---0-----0-3/5---6-5---5-0-3-3/5-0---5-5br---|
 PM .       .         . .       .     .                        
          
Eb|-----------------------------------------------------------------------|
Bb|-----------------------------------------------------------------------|
Gb|-----------------------------------------------------------------------|
Db|---12/10---10/7-7~---------7---7/5---------6-5---5-0-3-3/5-0-----------|
Ab|---10/8----8 /5-5~---------5---5/3-------5-6-5---5-0-3-3/5-0---------3-|
Db|-0-------0---------0-0-3/5---0-----0-3/5---6-5---5-0-3-3/5-0---0-3h5---|
 PM .       .         . .       .     .   

Eb|-----------------------------------------------------------------------|
Bb|-----------------------------------------------------------------------|
Gb|-----------------------------------------------------------------------|
Db|---12/10---10/7-7~---------7---7/5---------6-5---5-0-3-3/5-0---5-5br---|
Ab|---10/8----8 /5-5~---------5---5/3-------5-6-5---5-0-3-3/5-0---5-5br---|
Db|-0-------0---------0-0-3/5---0-----0-3/5---6-5---5-0-3-3/5-0---5-5br---|
 PM .       .         . .       .     .                                  

[Pre-Chorus]
Eb|---------------------------------|
Bb|---------------------------------|
Gb|---------------------------------|
Db|-3-3-3-3-3-6-6-2-2-2-2-2-2-2-0-2-|
Ab|-3-3-3-3-3-6-6-2-2-2-2-2-2-2-0-2-|
Db|-3-3-3-3-3-6-6-2-2-2-2-2-2-2-0-2-|
 PM . . . . .       . . . . .

Eb|---------------------------------|
Bb|---------------------------------|
Gb|---------------------------------|
Db|-3-3-3-3-3-6-6-2-2-2-0-2-2-2-0-2-|
Ab|-3-3-3-3-3-6-6-2-2-2-0-2-2-2-0-2-|
Db|-3-3-3-3-3-6-6-2-2-2-0-2-2-2-0-2-|
 PM . . . . .       . .     . .

Eb|---------------------------------|
Bb|---------------------------------|
Gb|---------------------------------|
Db|-3-3-3-3-3-6-6-2-2-2-2-2-2-2-0-2-|
Ab|-3-3-3-3-3-6-6-2-2-2-2-2-2-2-0-2-|
Db|-3-3-3-3-3-6-6-2-2-2-2-2-2-2-0-2-|
 PM . . . . .       . . . . .

Eb|---------------------------------|
Bb|---------------------------------|
Gb|---------------------------------|
Db|-3-3-3-3-3-6-6-2-2-2-0-2-2-2-0-2-|
Ab|-3-3-3-3-3-6-6-2-2-2-0-2-2-2-0-2-|
Db|-3-3-3-3-3-6-6-2-2-2-0-2-2-2-0-2-|
 PM . . . . .       . .     . .

[Chorus]
Eb|-------------------|
Bb|-------------------|
Gb|-------------------|
Db|-1-1-1-----------0-|
Ab|-1-1-1-------1-0-0-| (x4)
Db|-1-1-1---1/3-----0-|
 PM . . 

[Pre-Chorus]
Eb|---------------------------------|
Bb|---------------------------------|
Gb|---------------------------------|
Db|-3-3-3-3-3-6-6-2-2-2-2-2-2-2-0-2-|
Ab|-3-3-3-3-3-6-6-2-2-2-2-2-2-2-0-2-|
Db|-3-3-3-3-3-6-6-2-2-2-2-2-2-2-0-2-|
 PM . . . . .       . . . . .

Eb|---------------------------------|
Bb|---------------------------------|
Gb|---------------------------------|
Db|-3-3-3-3-3-6-6-2-2-2-0-2-2-2-0-2-|
Ab|-3-3-3-3-3-6-6-2-2-2-0-2-2-2-0-2-|
Db|-3-3-3-3-3-6-6-2-2-2-0-2-2-2-0-2-|
 PM . . . . .       . .     . .

Eb|---------------------------------|
Bb|---------------------------------|
Gb|---------------------------------|
Db|-3-3-3-3-3-6-6-2-2-2-2-2-2-2-0-2-|
Ab|-3-3-3-3-3-6-6-2-2-2-2-2-2-2-0-2-|
Db|-3-3-3-3-3-6-6-2-2-2-2-2-2-2-0-2-|
 PM . . . . .       . . . . .

Eb|---------------------------------|
Bb|---------------------------------|
Gb|---------------------------------|
Db|-3-3-3-3-3-6-6-2-2-2-0-2-2-2-0-2-|
Ab|-3-3-3-3-3-6-6-2-2-2-0-2-2-2-0-2-|
Db|-3-3-3-3-3-6-6-2-2-2-0-2-2-2-0-2-|
 PM . . . . .       . .     . .

[Chorus]
Eb|-------------------|
Bb|-------------------|
Gb|-------------------|
Db|-1-1-1-----------0-|
Ab|-1-1-1-------1-0-0-| (x4)
Db|-1-1-1---1/3-----0-|
 PM . . 

[Verse]
Eb|-----------------------------------------------------------------------|
Bb|-----------------------------------------------------------------------|
Gb|-----------------------------------------------------------------------|
Db|---12/10---10/7-7~---------7---7/5---------6-5---5-0-3-3/5-0-----------|
Ab|---10/8----8 /5-5~---------5---5/3-------5-6-5---5-0-3-3/5-0---------3-|
Db|-0-------0---------0-0-3/5---0-----0-3/5---6-5---5-0-3-3/5-0---0-3h5---|
 PM .       .         . .       .     .   

Eb|-----------------------------------------------------------------------|
Bb|-----------------------------------------------------------------------|
Gb|-----------------------------------------------------------------------|
Db|---12/10---10/7-7~---------7---7/5---------6-5---5-0-3-3/5-0---5-5br---|
Ab|---10/8----8 /5-5~---------5---5/3-------5-6-5---5-0-3-3/5-0---5-5br---|
Db|-0-------0---------0-0-3/5---0-----0-3/5---6-5---5-0-3-3/5-0---5-5br---|
 PM .       .         . .       .     .                                  

Eb|-----------------------------------------------------------------------|
Bb|-----------------------------------------------------------------------|
Gb|-----------------------------------------------------------------------|
Db|---12/10---10/7-7~---------7---7/5---------6-5---5-0-3-3/5-0-----------|
Ab|---10/8----8 /5-5~---------5---5/3-------5-6-5---5-0-3-3/5-0---------3-|
Db|-0-------0---------0-0-3/5---0-----0-3/5---6-5---5-0-3-3/5-0---0-3h5---|
 PM .       .         . .       .     .   

Eb|-----------------------------------------------------------------------|
Bb|-----------------------------------------------------------------------|
Gb|-----------------------------------------------------------------------|
Db|---12/10---10/7-7~---------7---7/5---------6-5---5-0-3-3/5-0---5-5br---|
Ab|---10/8----8 /5-5~---------5---5/3-------5-6-5---5-0-3-3/5-0---5-5br---|
Db|-0-------0---------0-0-3/5---0-----0-3/5---6-5---5-0-3-3/5-0---5-5br---|
 PM .       .         . .       .     .                        
          
[Pre-Chorus]
Eb|---------------------------------|
Bb|---------------------------------|
Gb|---------------------------------|
Db|-3-3-3-3-3-6-6-2-2-2-2-2-2-2-0-2-|
Ab|-3-3-3-3-3-6-6-2-2-2-2-2-2-2-0-2-|
Db|-3-3-3-3-3-6-6-2-2-2-2-2-2-2-0-2-|
 PM . . . . .       . . . . .

Eb|---------------------------------|
Bb|---------------------------------|
Gb|---------------------------------|
Db|-3-3-3-3-3-6-6-2-2-2-0-2-2-2-0-2-|
Ab|-3-3-3-3-3-6-6-2-2-2-0-2-2-2-0-2-|
Db|-3-3-3-3-3-6-6-2-2-2-0-2-2-2-0-2-|
 PM . . . . .       . .     . .

Eb|---------------------------------|
Bb|---------------------------------|
Gb|---------------------------------|
Db|-3-3-3-3-3-6-6-2-2-2-2-2-2-2-0-2-|
Ab|-3-3-3-3-3-6-6-2-2-2-2-2-2-2-0-2-|
Db|-3-3-3-3-3-6-6-2-2-2-2-2-2-2-0-2-|
 PM . . . . .       . . . . .

Eb|---------------------------------|
Bb|---------------------------------|
Gb|---------------------------------|
Db|-3-3-3-3-3-6-6-2-2-2-0-2-2-2-0-2-|
Ab|-3-3-3-3-3-6-6-2-2-2-0-2-2-2-0-2-|
Db|-3-3-3-3-3-6-6-2-2-2-0-2-2-2-0-2-|
 PM . . . . .       . .     . .

[Chorus]
Eb|-------------------|
Bb|-------------------|
Gb|-------------------|
Db|-1-1-1-----------0-|
Ab|-1-1-1-------1-0-0-| (x8)
Db|-1-1-1---1/3-----0-|
 PM . . 
      
[Outro]
Eb|---------------------------------------------------------------|
Bb|---------------------------------------------------------------|
Gb|---------------------------------------------------------------|
Db|---12/10---10/7-7~---------7---7/5---------6-5---5-0-3-3/5---0-|
Ab|---10/8----8 /5-5~---------5---5/3-------5-6-5---5-0-3-3/5---0-|
Db|-0-------0---------0-0-3/5---0-----0-3/5---6-5---5-0-3-3/5---0-|
 PM .       .         . .       .     .   


************************************

| b   Bend
| /   Slide up
| ~   Vibrato
| h   Hammer-on
| PM  Palm mute
| br  Bend release

************************************

            
            
Suggest correction
Creating personal tab
Creating personal tab
You can edit any tab online and save it as your Personal.

You can edit, replace or remove any tab part or add personal notes – all changes will be seen only by you.

Personal tabs can be accessed anytime from any device, even offline.
Learn more »
Give kudos to tab author, rate the tab!
1 2 3 4 5
comments
print report bad tab
guest
You may want to rate the tab now too:
select rating
Wanna post a correction for this tab? Suggest correction