Oops, an error
Loading. Please wait.

Phantom Limb tab

version 2
version 2

Whole song

Interactive

589 views 9 this week
2 commentsread comments
1 2 3 4 5
x 3
add to favorites
×
Save as Personal and add changes to this tab that will be seen only by you. Learn more ›
×
You can save this tab as Personal to edit and correct it or add notes. All changes will be seen only by you. Learn more »
launch autoscroll
font size
0
reset
how to read this tab
guitar tuner
edit
Autoscroll
slow
fast
+/-
esc
set tempo
stop
Alice In Chains - "Phantom Limb"
From "The DEvil Put Dinosaurs Here"
Tabbed by: jjhand 
Tuning: Half-step down

Thanks to Jaytee805 for the first tab of this song on UG which helped me get started. 
I loved the tight riffs in this one and wanted to fix a few errors and add to the solo. 
Hope you all like it. Please rate/comment.

Intro/Main Riff :
eb|-------------------------------------|
Bb|-------------------------------------|
Gb|-------------------------------------|
Db|-------------------------------------|
Ab|--------10--------------9---9-8------|
Eb|--0-0-0----0-0-0-0--0-0---0----------|


Guitar 2 - Played 2x over Main Riff before Verse:  
|-------------------------------|---------------------------------|
|-------------------------------|---------------------------------|
|---7----hold for 2 bars--------|-13~----hold for 2 bars----------|
|-------------------------------|---------------------------------|
|-------------------------------|---------------------------------|
|-------------------------------|---------------------------------|

For Verse, play Main Riff 4x


Verse Riff 2:
                              play 4x
|------------------------------------|
|------------------------------------|
|------------------------------------|
|------------------------------------|
|---------2-----5-----2-----5-4------|
|---4-4-4---4-4---4-4---4-4----------|

                             play once
|------------------------------------|
|------------------------------------|
|------------------------------------|
|------------------------------------|
|---------2-----5-----2-----5-4------|
|---3-3-3---3-3---3-3---3-3----------|


Chorus: 

 Part 1, play 4x
|-------------------|--------0---------|
|-------------------|--------0---------|
|-------------------|--------0---------|
|-7-7/8-------------|--------2---------|
|-5-5/6-------7-----|-5-7----2---------|
|---------6~--5---0-|-3-5----0---------|

  Part 2, play 4x
|-------------|-------------|---------------|---------------|
|-------------|-------------|---------------|---------------|
|-------------|-------------|---------------|---------------|
|-2-----0-----|-------------|---------------|---------------|
|-3-----2-----|-2-----0-----|-2-------------|-(2)-----------|
|-------------|-3-----2-----|-0-------------|-(0)-----------|


Play Main Riff again, continue on guitar 2 through solo

Solo (3:50)
|--------------|---------------------------------|-12-------------------------|
|------------17b20~-b20-b20-b20-b20-b20r17-15-12-|---15b17~--15-12------------|
|--------------|---------------------------------|----------------14b16-12~~~-|
|--14~~~~~~~---|---------------------------------|----------------------------|
|--------------|---------------------------------|----------------------------|
|--------------|---------------------------------|----------------------------|

|--------------------------------------|-----------------------------|
|-----------12--15-14b15r14b15r14-12---|-12--------------------------|
|------12-14--12--------------------14-|---14br16-12-----------------|
|-12-14--------------------------------|------------14-12------------|
|--------------------------------------|-----------------12-10~~~----|
|--------------------------------------|-----------------------------|

|--------------------------------------|-----------------------------------|
|--------------------------------------|-----------------------------17~~--|
|-/12~~--12p9---9-12p9---12b14---------|------12-14-14br15-12-14-14b16~~~--|
|-------------9--------9---------------|-12-14-----------------------------|
|--------------------------------12-14-|-----------------------------------|
|--------------------------------------|-----------------------------------|

|-12-15----12-----------------------------------|
|-------14----12-15-----------------------------|
|-------------------12-14-14br16-12-----12br14--|
|----------------------------------14-12--------|
|-----------------------------------------------|
|-----------------------------------------------|

|---------------------------15-17----17b19~~----|
|------------------12-15-17-------15------------|
|---------12-----14-----------------------------|
|----12h14--14p12-------------------------------|
|-----------------------------------------------|
|-----------------------------------------------|


Play Main Riff for another verse

Play Verse Riff 2

Play Chorus Again and hold out Eb5 chord at end



************************************
KEY:

| /   slide up
| \   slide down
| h   hammer-on
| p   pull-off
| ~   vibrato
| +   harmonic
| x   Mute note
| b   Bend
| r   Release Bend
| br  bend to next note and release
| ()  hold notes from previous bar

************************************

            
            
Suggest correction
Creating personal tab
Creating personal tab
You can edit any tab online and save it as your Personal.

You can edit, replace or remove any tab part or add personal notes – all changes will be seen only by you.

Personal tabs can be accessed anytime from any device, even offline.
Learn more »
Give kudos to tab author, rate the tab!
1 2 3 4 5
comments
print report bad tab
2 comments total.
0 reply
ComaAlpha 193 Nov 10, 2016 07:29 AM

That post verse part is actually right. I notice that when I learn sins, I have to take bits and pieces from different tab sources to learn what I believe I'm hearing.

0 reply
seansguitarstudio 10 Mar 25, 2017 02:14 PM

Very close, good work. I'd just to mention that on the chorus, you should add a A# (6 fret) before the E minor chord, every other time.

guest
You may want to rate the tab now too:
select rating
Wanna post a correction for this tab? Suggest correction