Oops, an error
Loading. Please wait.

What The Hell Have I intro tab

version 1
version 1

Intro

Whole song

Interactive

9,387 views 1 this week
3 commentsread comments
1 2 3 4 5
x 7
add to favorites
×
Save as Personal and add changes to this tab that will be seen only by you. Learn more ›
×
You can save this tab as Personal to edit and correct it or add notes. All changes will be seen only by you. Learn more »
launch autoscroll
font size
0
reset
how to read this tab
guitar tuner
backing track
0:00
0:00
edit
Autoscroll
slow
fast
+/-
esc
set tempo
stop
e------------------------------
b------------------------------
g-2(b)---------------------2---
d------------------------3-----
a-----5-4---0--1--0----3-------
E---------3----------1---------

e------------------------------
b------------------------------
g-2(b)--------------------2----
d--------------------2(b)-0----
a------5-4---0--1--0-----------
E----------3-------------------

Just adjusting From what I have seen..I got this from guitar world magazine and 
Jerry showed some of his guitar tricks in it.

            
            
Suggest correction
Creating personal tab
Creating personal tab
You can edit any tab online and save it as your Personal.

You can edit, replace or remove any tab part or add personal notes – all changes will be seen only by you.

Personal tabs can be accessed anytime from any device, even offline.
Learn more »
comments
print report bad tab
3 comments total.
0 reply
Brennos_37 20 May 05, 2006 08:45 PM

I love the song and also thsi version. Nice job man!!

0 reply
cooljew 153 Jul 25, 2007 02:31 PM

nice tab, the one thing i wanna know is, how the **** did cantrell come up witht this riff, its all over the god damn fretboard, crazy... anyway nice tab.

0 reply
cooljew 153 Jul 25, 2007 02:39 PM

Yours is good and everything but on a second glance this might be a bit more accurate for the first part of the riff, thanks.

e--------------------------------
b--------------------------------
g-2(b)-------------------------2-
d--------------------2(b)----3---
a-----5-4---0--1--0--------3-----
E---------3--------------1-------

guest
Wanna post a correction for this tab? Suggest correction