Oops, an error
Loading. Please wait.
We have an official Would tab made by UG professional guitarists. Check out the tab »
×

Would tab

version 5
version 5

Whole song

283 views 6 this week
1 commentread comment
1 2 3 4 5
2 more votes to show rating
add to favorites
×
Save as Personal and add changes to this tab that will be seen only by you. Learn more ›
×
You can save this tab as Personal to edit and correct it or add notes. All changes will be seen only by you. Learn more »
launch autoscroll
font size
0
reset
how to read this tab
guitar tuner
backing track
0:00
0:00
edit
Autoscroll
slow
fast
+/-
esc
set tempo
stop
About this tab version
This version includes the short section right at the start of the song with the harmonics, which seems to be missing from other tabs of this song. Was this info helpful? Yes No
[Intro]
D#|-------------------------------|
A#|-------------------------------|
F#|----------------------9--------|
C#|-------------------------11----|
G#|-------12*-------12*-----------|
D#|---12*-------12*---------------|

[Verse]
D#|-----------------------------------------------------------------------------------------------|
A#|--------------------------------------------------5--------------------------------------------|
F#|----4h6-4h6-4---4-------4h6-4h6-4---4-----------4---4h6-4h6-4---5-------4h6-4h6-4---4----------|
C#|----4---4---4---5-------4---4---4---5-------4h5-----4---4---4---4-------4---4---4---5----------|
G#|-----------------------------------------------------------------------------------------------|
D#|-----------------------------------------------------------------------------------------------|

D#|-----------------------------------------------------------------------------------------------|
A#|-----------------------------------------------------------------------------------------------|
F#|-----------------------------------------------------------------------------------------------|
C#|---------2-----------------------------------------------2-------------------------------------|
G#|-------2---2h4-2h4-2---2-------2h4-2h4-2---2-----------2---2h4-2h4-2---2-------2h4-2h4-2---2---|
D#|---2h3-----2---2---2---3-------2---2---2---3-------2h3-----2---2---2---3-------2---2---2---3---|

[Chorus] [x4]
D#|----------------3-333-3-3-3-3-3-3333-|
A#|----------------3-333-3-3-3-3-3-3333-|
F#|---4-4-444-4-44-0-000-0-0-0-0-0-0000-|
C#|---4-4-444-4-44-0-000-0-0-0-0-0-0000-|
G#|---0h2-222-2-22-x-xxx-x-x-x-x-x-xxxx-|
D#|----------------3-333-3-3-3-3-3-3333-|

[Verse]
D#|-----------------------------------------------------------------------------------------------|
A#|--------------------------------------------------5--------------------------------------------|
F#|----4h6-4h6-4---4-------4h6-4h6-4---4-----------4---4h6-4h6-4---5-------4h6-4h6-4---4----------|
C#|----4---4---4---5-------4---4---4---5-------4h5-----4---4---4---4-------4---4---4---5----------|
G#|-----------------------------------------------------------------------------------------------|
D#|-----------------------------------------------------------------------------------------------|

D#|-----------------------------------------------------------------------------------------------|
A#|-----------------------------------------------------------------------------------------------|
F#|-----------------------------------------------------------------------------------------------|
C#|---------2-----------------------------------------------2-------------------------------------|
G#|-------2---2h4-2h4-2---2-------2h4-2h4-2---2-----------2---2h4-2h4-2---2-------2h4-2h4-2---2---|
D#|---2h3-----2---2---2---3-------2---2---2---3-------2h3-----2---2---2---3-------2---2---2---3---|

[Chorus] [x4]
D#|----------------3-333-3-3-3-3-3-3333-|
A#|----------------3-333-3-3-3-3-3-3333-|
F#|---4-4-444-4-44-0-000-0-0-0-0-0-0000-|
C#|---4-4-444-4-44-0-000-0-0-0-0-0-0000-|
G#|---0h2-222-2-22-x-xxx-x-x-x-x-x-xxxx-|
D#|----------------3-333-3-3-3-3-3-3333-|

[Solo]
*bend is full step then back
D#|--------------------------------------------------------------------|
A#|------------------------10------------------------------------------|
F#|-------------11----9-11---------------------------------------------|
C#|----11tr12-----------------9b\7/9---9p7-----------------------------|
G#|-------------------------------------------9------7h9---------------|
D#|-------------------------------------------------------9-------p7---|

[Rhythm guitar during solo] [x4]
   PM----------------------------------------------------|
D#|--------------------------------------------------------|
A#|--------------------------------------------------------|
F#|--------------------------------------------------------|
C#|--------------------------------------------------------|
G#|--------------------------------------------------------|
D#|-0-2-2-2-2-0-0-0-0-3-3-3--3-3-3-0--0-0-0-0h3p0-0-0-0-0--|

[Chorus] [x4]
D#|----------------3-333-3-3-3-3-3-3333-|
A#|----------------3-333-3-3-3-3-3-3333-|
F#|---4-4-444-4-44-0-000-0-0-0-0-0-0000-|
C#|---4-4-444-4-44-0-000-0-0-0-0-0-0000-|
G#|---0h2-222-2-22-x-xxx-x-x-x-x-x-xxxx-|
D#|----------------3-333-3-3-3-3-3-3333-|

[Bridge] [x4]                                                       PM----------------------|
D#|--------------------------------------------------------------------------------------------|
A#|---3--3----6--6-----------------------------------------------------------------------------|
F#|---2--2----5--5-----------------------------------------------------------------------------|
C#|---0--0----4--4-----------------------------------------------------------------------------|
G#|---0--0----5--5----6--6--6--6-666-4-4-4-4--5--5--5--5-555-5-5-5-5--2--2-4---5---4--5--2-----|
D#|-------------------4--4--4--4-444-6-6-6-6--3--3--3--3-333-3-3-3-3--0--0--00--00--0--0---0---|

[Outro]
D#|-------------------------------|
A#|---6-----6-----6-----6-----6---|
F#|---5-----5-----5-----5-----5---|
C#|---4-----4-----4-----4-----4---|
G#|---5-----5-----5-----5-----5---|
D#|-------------------------------|



************************************

h = hammer on
p = pull-off
b = bend
/ = slide up
\ = slide down
* = natural harmonic
x = not played

************************************

            
            
Suggest correction
Creating personal tab
Creating personal tab
You can edit any tab online and save it as your Personal.

You can edit, replace or remove any tab part or add personal notes – all changes will be seen only by you.

Personal tabs can be accessed anytime from any device, even offline.
Learn more »
Give kudos to tab author, rate the tab!
1 2 3 4 5
comments
print report bad tab
1 comment total.
0 reply
insaneink1979 10 Aug 01, 2017 04:04 PM

Awesome

guest
You may want to rate the tab now too:
select rating
Wanna post a correction for this tab? Suggest correction