Oops, an error
Loading. Please wait.

Rainbows bass

version 1
version 1

Whole song

Interactive

8,889 views 1 this week
1 commentread comment
1 2 3 4 5
1 last vote to show rating
add to favorites
×
Save as Personal and add changes to this tab that will be seen only by you. Learn more ›
×
You can save this tab as Personal to edit and correct it or add notes. All changes will be seen only by you. Learn more »
launch autoscroll
font size
0
reset
guitar tuner
edit
Autoscroll
slow
fast
+/-
esc
set tempo
stop
I learned this song watching a video in youtube

[Intro] Bass play when Shou says 'Oh yeah'
F|------------------------------------------------------------------------|
C|------------------------------------------------------------------------|
G|------------------------------------------------------------------------|
D|0/12--------------------------------------------------------------------|

[Verse]
F|------------------------------------------------------------------------|
C|------------------------------------------------------------------------|4x
G|------2-----2---------------------------2-----2-------------------------|
D|--0-0---0-0---0-0-3-3-5-5-5-o-3-5---0-0---0-0---0-0-3-3-5-5-5-6-5-3-----|

[Pre-Chorus]
F|------------------------------------------------------------------------|
C|------------------------------------------------------------------------|
G|-3-3-3-3-3-3-3-3-3-3-3-3-3-3-3-3-3--------------------------------------|
D|------------------------------------5-5-5-5-5-5-5-5-5-5-5-5-5-5-5-5-----|

F|------------------------------------------------------------------------|
C|------------------------------------------------------------------------|
G|-3-3-3-3-3-3-3-3-3-3-3-3-3-3-3-3-3--5-5-5-5-5-5-5-5-5-5-5-5-5-5-5-5-----|
D|------------------------------------------------------------------------|


[Chorus] 2x
F|------------------------------------------------------------------------|
C|------------------------------------------------------------------------|
G|------2-----2---------------------------2-----2-------------------------|
D|--0-0---0-0---0-0-3-3-5-5-0-3-6-5---0-0---0-0---0-0-3-3-5-5-5-6-5-3-----|

F|------------------------------------------------------------------------|
C|------------------------------------------------------------------------|
G|-3-3-3-3-3-3-3-3-5-5-5-5-5-5-5-5-5--3-3-3-3-3-3-3-3-3-15-15-15-15-15-15-|
D|------------------------------------------------------------------------|

[Verse] 3x

[Pre-Chorus]

[Chorus] 2x

[Break]

F|------------------------------------------------------------7-7-7-7-7-7-|
C|------------------------------------------------------------------------|
G|---2-----3-----------------------------3--3-3--3-5--5-5-5-5-------------|
D|-0----5-----5---0-0-0-0-0-0-5--5-5--5-----------------------------------|

[Guitar Solo]
F|------------------------------------------------------------------------|
C|------------------------------------------------------------------------|
G|------2-----2-----------------------------------------3-3-3-3-3-3-3-3-3-|
D|--0-0---0-0---0-0-3-3-3-3-3-0-3-5---5-5-5-5-5-5-5-5-5-------------------|

F|------------------------------------------------------------------------|
C|------------------------------------------------------------------------|
G|-7-7-7-7-7-7-7-7-3-3-3-3-3-3-3-3--5-5-5-5-5-5-5-5-5-3-3--3-3--3---------|
D|------------------------------------------------------------------------|

[Chorus]2x

[Outro]

F|------------------------7---7---7-----6---6---6------7---7---7----------|
C|------------------------------------------------------------------------|4x
G|------2-----2-----2-5-5---5---5---4-4---4---4----5-5---5---5------------|
D|--0-0---0-0---0-0-------------------------------------------------------|

F|-7-9-9-9-9-9-----9-7-7-7-7-7----7-6-6-6-6-6---6-7-6-6-6-6-6---6-7-------|
C|-------------9-8------------7-6-------------7---------------7-----------|
G|------------------------------------------------------------------------|
D|------------------------------------------------------------------------|


F|-7-9-9-9-9-9-----9-7-7-7-7-7----7-6-6-6-6-6---6-7-6-6-6-6-6-6-6-6-------|
C|-------------9-8------------7-6-------------7---------------------------|
G|------------------------------------------------------------------------|
D|------------------------------------------------------------------------|

[Bass End]

F|------------------------------------------------------------------------|
C|------------------------------------------------------------------------|2x
G|-----2-----2-----5---------------------2-----2-----5--------------------|
D|-0-0---0-0---0-0---0-0-3-0-3-5-0---0-0---0-0---0-0---0-0-3-0-3-5-0------|

F|------------------------------------------------------------------------|
C|------------------------------------------------------------------------|
G|-----2-----2------------------------------------------------------------|
D|-0-0---0-0---0-0---0-0-0------------------------------------------------|

In Outro, I think that i made a mistake
Sorry my english, I'm brazilian.

            
            
Suggest correction
Creating personal tab
Creating personal tab
You can edit any tab online and save it as your Personal.

You can edit, replace or remove any tab part or add personal notes – all changes will be seen only by you.

Personal tabs can be accessed anytime from any device, even offline.
Learn more »
Give kudos to tab author, rate the tab!
1 2 3 4 5
comments
print report bad tab
1 comment total.
0 reply
RetroIndieTom 10 Feb 16, 2009 02:16 AM

How do you get your tuning like this and what type of tuning is it?

Can you give me a walkthrough on how you tune like this?

Thanks

guest
Wanna post a correction for this tab? Suggest correction