Oops, an error
Loading. Please wait.

Sarah Wynn bass

version 1
version 1

Whole song

Interactive

395 views 1 this week
1 commentread comment
1 2 3 4 5
2 more votes to show rating
add to favorites
×
Save as Personal and add changes to this tab that will be seen only by you. Learn more ›
×
You can save this tab as Personal to edit and correct it or add notes. All changes will be seen only by you. Learn more »
launch autoscroll
font size
0
reset
guitar tuner
edit
Autoscroll
slow
fast
+/-
esc
set tempo
stop
         MAIN (don't play first time through)
G|------------------------------------------------|
D|------------------------------------------------|
A|-33--22--22-11-11-11-33-22-22-11111111----------|
E|------------------------------------------------|
             Repeat this part once
HARDCORE PART ("What the hell were you thinking of?")
G|------------------------------------------------|
D|---------3-3-2--2- something like this----------|
A|-3-----11-1-1-11-1------------------------------|
G|--0-2-3-----------------------------------------|


   STRANGE PART ("Habbits are hard to break...")
G|------------------------------------------------|
D|------------------------------------------------|
A|-3---1111111111111111111111111111111111111111111| uh... kinda
E|--0-3-------------------------------------------|

MAIN
HARDCORE (x4)
MAIN (x2)
HARDCORE (x4)
STRANGE 
MAIN (1/2)
HARDCORE (x6)
MAIN (1/2)

I promise this is almost completely correct.
-Paty (Patrick)

            
            
Suggest correction
Creating personal tab
Creating personal tab
You can edit any tab online and save it as your Personal.

You can edit, replace or remove any tab part or add personal notes – all changes will be seen only by you.

Personal tabs can be accessed anytime from any device, even offline.
Learn more »
Give kudos to tab author, rate the tab!
1 2 3 4 5
comments
print report bad tab
1 comment total.
0 reply
Vaughanabe13 277 Apr 25, 2009 05:32 PM

The "hardcore" part sounds more like this to me (the way you have it tabbed, not using a 5 string)
G|------------------------------------------|
D|----------------------3-3-2-2-0-0-0-------|
A|-3333---------------11-1-1-1-1-1-1-1------|
G|-----0000-2222-3333-----------------------|
That's just from listening to the CD though. I'm basing the notes off of what you wrote but I know the pattern is correct, so this should be mostly correct even if the pitches are different (I don't have a bass with me to check).

And the "strange" part starts off ok but there's a whole line in there you didn't tab out. It's not just "11111111"

guest
Wanna post a correction for this tab? Suggest correction