Oops, an error
Loading. Please wait.
We have an official Smooth Criminal tab made by UG professional guitarists. Check out the tab »
×
30,200 views 12 this week
8 commentsread comments
1 2 3 4 5
x 18
add to favorites
×
Save as Personal and add changes to this tab that will be seen only by you. Learn more ›
×
You can save this tab as Personal to edit and correct it or add notes. All changes will be seen only by you. Learn more »
launch autoscroll
font size
0
reset
guitar tuner
backing track
0:00
0:00
edit
Autoscroll
slow
fast
+/-
esc
set tempo
stop
Author
Difficulty
-----------------------------------------------------------------------------
			 Smooth Criminal - Alien Ant Farm
-----------------------------------------------------------------------------

Tabbed By : den alec
e-mail: alec_sterckx@hotmail.com

this is the only correct way to play this song enjoy !

(intro)
E|---5---|

vers
G|-------------------------------------|
D|-------------------------------------|     
A|------------22-0-2-33-0-3-2p0--------|         X8
E|---5555-3-5-------------------3--5---|

pre chorus
G|----------------------------------|
D|----------------------------------|
A|------------22-0-2-33-0-3-2p0-----|
E|---5555-3-5-------------------3---|

chorus
G|--------------------------------|
D|-------------3------3-----5-----|
A|--------------------------------|              X3
E|---1--1-1-01----01-----03---0---|
Annie are you okay...

G|---------------------------------|
D|-------------3-------------------|
A|-----------------------------0---|
E|---1--1-1-01---10-0--0-3-0-3-----|

G|-----------------------------------------------------------|
D|-----------------------------------------------------------|
A|----------------------------0--------------------------0---|
E|---555555-33-33-11-11-3-0-3----555555-33-33-11-11-0--3-----|
Annie are you akay could you tell us that you are okay ?
G|-----------------------------------------------------------|
D|-----------------------------------------------------------|
A|----------------------------0------------------------------|
E|---555555-33-33-11-11-3-0-3----555555-33-33-11-11-0--3-----|

G|--------------------------------|
D|-------------3------3-----5-----|
A|--------------------------------|              X2
E|---1--1-1-01----01-----03---0---|

G|----------------------------------|
D|-------------3------3-----5-------|
A|----------------------------------|             
E|---1--1-1-01----01-----03---3-1---|

G|------------------------|
D|------------------------|
A|--------------0---------|
E|---0--0-0--0------------|
you've been hit by...

vers
G|-------------------------------------|
D|-------------------------------------|     
A|------------22-0-2-33-0-3-2p0--------|         X3
E|---5555-3-5-------------------3--5---|

pre chorus
G|----------------------------------|
D|----------------------------------|
A|------------22-0-2-33-0-3-2p0-----|
E|---5555-3-5-------------------3---|

G|--------------------------------|
D|-------------3------3-----5-----|
A|--------------------------------|              X3
E|---1--1-1-01----01-----03---0---|

G|---------------------------------|
D|-------------3-------------------|
A|-----------------------------0---|
E|---1--1-1-01---10-0--0-3-0-3-----|

G|-----------------------------------------------------------|
D|-----------------------------------------------------------|
A|----------------------------0--------------------------0---|
E|---555555-33-33-11-11-3-0-3----555555-33-33-11-11-0--3-----|

G|-----------------------------------------------------------|
D|-----------------------------------------------------------|
A|----------------------------0------------------------------|
E|---555555-33-33-11-11-3-0-3----555555-33-33-11-11-0--3-----|

G|----------------------------------|
D|-------------3------3-----5-------|
A|----------------------------------|             
E|---1--1-1-01----01-----03---3-1---|

G|------------------------|
D|------------------------|
A|------7-7-----0---------|
E|---0-------0------------|

vers+solo
G|-------------------------------------|
D|-------------------------------------|     
A|------------22-0-2-33-0-3-2p0--------|         X8
E|---5555-3-5-------------------3--5---|

G|-----------------------------------------------------------|
D|-----------------------------------------------------------|
A|----------------------------0--------------------------0---|
E|---555555-33-33-11-11-3-0-3----555555-33-33-11-11-0--3-----|

G|-----------------------------------------------------------|
D|-----------------------------------------------------------|
A|----------------------------0--------------------------0---|
E|---555555-33-33-11-11-3-0-3----555555-33-33-11-11-0--3-----|

bridge
G|-----------------------------------------------------------|
D|-----------------------------------------------------------|
A|----------22-22-33-33-5-----0---------22-22-33-33------0---|
E|---555555---------------0-3----555555-------------0--3-----|

G|-----------------------------------------------------------|
D|-----------------------------------------------------------|
A|----------22-22-33-33-5-----0---------22-22-33-33------0---|
E|---555555---------------0-3----555555-------------0--3-----|

outro
G|-------------------------------------|
D|-------------------------------------|     
A|------------22-0-2-33-0-3-2p0--------|      X2  
E|---5555-3-5-------------------3--5---|

G|-------------------------------|
D|-------------------------------|
A|---------------------------0---|
E|---555555-33-33-11-11-0--3-----|

end
G|--------------------------------|
D|--------------------------------|     
A|------------22-0-2-33-0-3-2-0---|         
E|---5555-3-5---------------------|

this is a sweet bassline for a sweet song !


| /  slide up
| \  slide down
| h  hammer-on
| p  pull-off
| ~  vibrato
| +  harmonic
| x  Mute note
=============================================================================

            
            
Suggest correction
Creating personal tab
Creating personal tab
You can edit any tab online and save it as your Personal.

You can edit, replace or remove any tab part or add personal notes – all changes will be seen only by you.

Personal tabs can be accessed anytime from any device, even offline.
Learn more »
comments
print report bad tab
8 comments total. Showing first comments. show 1 bad comment
+1 reply
Zachy Boy 279 Dec 02, 2007 05:41 PM

great tab, space the numbers though

+1 reply
frodo ladd 10 Jan 04, 2008 09:08 AM

kwl

guest
You may want to rate the tab now too:
select rating
Wanna post a correction for this tab? Suggest correction