Oops, an error
Loading. Please wait.
We have an official Smooth Criminal tab made by UG professional guitarists. Check out the tab »
×
2,347 views 1 this week
3 commentsread comments
1 2 3 4 5
1 last vote to show rating
add to favorites
×
Save as Personal and add changes to this tab that will be seen only by you. Learn more ›
×
You can save this tab as Personal to edit and correct it or add notes. All changes will be seen only by you. Learn more »
launch autoscroll
font size
0
reset
guitar tuner
backing track
0:00
0:00
edit
Autoscroll
slow
fast
+/-
esc
set tempo
stop
intro
----------------------------------------------------------|
----------------------------------------------------------|
----0000----022-0233---3-3-2----0-------------------------|
---------3-------------------3----------------------------|

section A
----------------------------------------------------------|
----------------------------------------------------------|
----------------------------------------------------------|
-1--11-----1-1-33---1--11--0--0303------------------------|

section B
----------------------------------------------------------|
----------------------------------------------------------|
----------------------------------------------------------|
-5-5--3-3---1-11-33--55--33----1----1---0030--------------|

coda
----------------------------------------------------------|
----------------------------------------------------------|
----------------------------------------------------------|
-1----1-----0---------------------------------------------|


structure

intro x8
section A
section B x2
section A
coda
intro x4
section A
coda
section B
intro till the end of the song

            
            
Suggest correction
Creating personal tab
Creating personal tab
You can edit any tab online and save it as your Personal.

You can edit, replace or remove any tab part or add personal notes – all changes will be seen only by you.

Personal tabs can be accessed anytime from any device, even offline.
Learn more »
Give kudos to tab author, rate the tab!
1 2 3 4 5
comments
print report bad tab
3 comments total.
0 reply
Vaughanabe13 277 Apr 25, 2009 05:08 PM

sorry, this is almost completely wrong

0 reply
thebassman12345 30 Jul 13, 2009 10:46 PM

well my bass teacher worked this out and hes had more than enough experience to work it out and whenever i play it it sounds fine

0 reply
bishopbd 10 Apr 11, 2014 01:08 PM

yea sounds fine when i play it too

guest
You may want to rate the tab now too:
select rating
Wanna post a correction for this tab? Suggest correction