Oops, an error
Loading. Please wait.
We have an official Smooth Criminal tab made by UG professional guitarists. Check out the tab »
×
469,022 views 642 this week
47 commentsread comments
1 2 3 4 5
x 164
add to favorites
×
Save as Personal and add changes to this tab that will be seen only by you. Learn more ›
×
You can save this tab as Personal to edit and correct it or add notes. All changes will be seen only by you. Learn more »
launch autoscroll
font size
0
reset
how to read this tab
guitar tuner
backing track
0:00
0:00
edit
Autoscroll
slow
fast
+/-
esc
set tempo
stop
Author
Unregistered
[Intro]  
(palm muted)
e|---------------------------------------------------------|
B|---------------------------------------------------------|
G|---------------------------------------------------------| (x4)
D|---7-------7-7-7-7-7-7-9-9----9-9-10-10----10-10-9-5--7--|
A|---7-------7-7-7-7-7-7-9-9----9-9-10-10----10-10-9-5--7--|
E|---5-------5-5-5-5-5-5-7-7----7-7--8--8-----8--8-7-3--5--|
    A5                   

[Verse]
(palm muted)
e|---------------------------------------------------------|
B|---------------------------------------------------------|
G|---------------------------------------------------------| (x4)
D|---7-------7-7-7-7-7-7-9-9----9-9-10-10----10-10-9-5--7--|
A|---7-------7-7-7-7-7-7-9-9----9-9-10-10----10-10-9-5--7--|
E|---5-------5-5-5-5-5-5-7-7----7-7--8--8-----8--8-7-3--5--|
    A5   

[Pre-Chorus]
e|---------------------------------------|
B|---------------------------------------|
G|---------------------------------------|
D|--3-----3-3-3-3---3-3-3--3-5-5-5-3-----| (x3)
A|--3-----3-3-3-3---3-3-3--3-5-5-5-3-----|
E|--1-----1-1-1-1---1-1-1--1-3-3-3-1-----|
    *           *       *          * 

e|-------------------------------------------------|
B|-------------------------------------------------|
G|-------------------------------------------------|
D|--3-----3-3-3-3---3-2-2--2-5-5----5-7------------|
A|--3-----3-3-3-3---3-2-2--2-5-5----5-7------------|
E|--1-----1-1-1-1---1-0-0--0-3-3----3-5------------|
    *           *       

[Chorus]
"Anny are you okay..could you tell us..if you\'re okay..I hear the sound of "
e|---------------------------------------------------|
B|---------------------------------------------------|
G|---------------------------------------------------|
D|---7----7-7-7-7-7-7-5-5----5-5-3-3----3-3-2-2--5-7-|
A|---7----7-7-7-7-7-7-5-5----5-5-3-3----3-3-2-2--5-7-|
E|---5----5-5-5-5-5-5-3-3----3-3-1-1----1-1-0-0--3-5-|

e|---------------------------------------|
B|---------------------------------------|
G|---------------------------------------|
D|--3-----3-3-3-3---3-3-3--3-5-5-5-3-----| (x3)
A|--3-----3-3-3-3---3-3-3--3-5-5-5-3-----|
E|--1-----1-1-1-1---1-1-1--1-3-3-3-1-----|
    *           *       *          * 

(You\'ve been hit by..E5..you\'ve been struck by..E5 E5..you\'ve been hit by..E5.. A smoooooth criminal) 

e|-----------------------|
B|-----------------------|
G|-----------------------|
D|---2----2-2---2-2--2-2-|
A|---2----2-2---2-2--2-2-|
E|---0----0-0---0-0--0-0-|
     *            *
       
[Instrumental]
(palm muted)
e|---------------------------------------------------------|
B|---------------------------------------------------------|
G|---------------------------------------------------------|
D|---7-------7-7-7-7-7-7-9-9----9-9-10-10----10-10-9-5--7--| (x2)
A|---7-------7-7-7-7-7-7-9-9----9-9-10-10----10-10-9-5--7--|
E|---5-------5-5-5-5-5-5-7-7----7-7--8--8-----8--8-7-3--5--|
    A5                   

[Verse]
(palm muted)
e|---------------------------------------------------------|
B|---------------------------------------------------------|
G|---------------------------------------------------------|
D|---7-------7-7-7-7-7-7-9-9----9-9-10-10----10-10-9-5--7--| (x2)
A|---7-------7-7-7-7-7-7-9-9----9-9-10-10----10-10-9-5--7--|
E|---5-------5-5-5-5-5-5-7-7----7-7--8--8-----8--8-7-3--5--|
    A5                   

[Pre-Chorus]
e|---------------------------------------|
B|---------------------------------------|
G|---------------------------------------|
D|--3-----3-3-3-3---3-3-3--3-5-5-5-3-----| (x3)
A|--3-----3-3-3-3---3-3-3--3-5-5-5-3-----|
E|--1-----1-1-1-1---1-1-1--1-3-3-3-1-----|
    *           *       *          * 

e|-------------------------------------------------|
B|-------------------------------------------------|
G|-------------------------------------------------|
D|--3-----3-3-3-3---3-2-2--2-5-5----5-7------------|
A|--3-----3-3-3-3---3-2-2--2-5-5----5-7------------|
E|--1-----1-1-1-1---1-0-0--0-3-3----3-5------------|
    *           *       

[Chorus]        
e|---------------------------------------------------|
B|---------------------------------------------------|
G|---------------------------------------------------|  (x4)
D|---7----7-7-7-7-7-7-5-5----5-5-3-3----3-3-2-2--5-7-|
A|---7----7-7-7-7-7-7-5-5----5-5-3-3----3-3-2-2--5-7-|
E|---5----5-5-5-5-5-5-3-3----3-3-1-1----1-1-0-0--3-5-|

e|---------------------------------------|
B|---------------------------------------|
G|---------------------------------------|
D|--3-----3-3-3-3---3-3-3--3-5-5-5-3-----| 
A|--3-----3-3-3-3---3-3-3--3-5-5-5-3-----|
E|--1-----1-1-1-1---1-1-1--1-3-3-3-1-----|
    *           *       *          * 

e|-----------------------|
B|-----------------------|
G|-----------------------|
D|---2----2-2---2-2--2-2-|
A|---2----2-2---2-2--2-2-|
E|---0----0-0---0-0--0-0-|
     *            *

[Pre-Solo]
(pick slide for 7 seconds)
e|-------------------|
B|-------------------|
G|-------------------|
D|--7-7-7-7-7-7-7-7--|
A|--7-7-7-7-7-7-7-7--|
E|--5-5-5-5-5-5-5-5--|
                  *

[Solo]
(do a pick slide on the E and A strings..
start slow going down then faster till it pitches out)

e|-----------------------------------------------|
B|-----------------------------------------------|
G|-----------------------------------------------|  (x8)
D|---7--7--7p9h10p9h7p5---5-7-7-7----------------|
A|-----------------------------------------------|
E|-0---------------------------------------------|
   *          

[Chorus]
e|---------------------------------------------------|
B|---------------------------------------------------|
G|---------------------------------------------------|  (x8)
D|---7----7-7-7-7-7-7-5-5----5-5-3-3----3-3-2-2--5-7-|
A|---7----7-7-7-7-7-7-5-5----5-5-3-3----3-3-2-2--5-7-|
E|---5----5-5-5-5-5-5-3-3----3-3-1-1----1-1-0-0--3-5-|

[Outro]
(palm muted)
e|---------------------------------------------------------|
B|---------------------------------------------------------|
G|---------------------------------------------------------|
D|---7-------7-7-7-7-7-7-9-9----9-9-10-10----10-10-9-5--7--| (x2)
A|---7-------7-7-7-7-7-7-9-9----9-9-10-10----10-10-9-5--7--|
E|---5-------5-5-5-5-5-5-7-7----7-7--8--8-----8--8-7-3--5--|
    A5                   

(palm muted)
e|-----------------------------------------------|
B|-----------------------------------------------|
G|-----------------------------------------------|
D|---7----7-7-7-7-7-5-5----5-5-3-3----3-3-2-5--7-|
A|---7----7-7-7-7-7-5-5----5-5-3-3----3-3-2-5--7-|
E|---5----5-5-5-5-5-3-3----3-3-1-1----1-1-0-3--5-|

(palm muted)
e|---------------------------------------------------------|
B|---------------------------------------------------------|
G|---------------------------------------------------------|
D|---7-------7-7-7-7-7-7-9-9----9-9-10-10----10-10-9-5--7--| (x2)
A|---7-------7-7-7-7-7-7-9-9----9-9-10-10----10-10-9-5--7--|
E|---5-------5-5-5-5-5-5-7-7----7-7--8--8-----8--8-7-3--5--|
    A5


************************************

| h  Hammer-on
| p  Pull-off

************************************

            
            
Suggest correction
Creating personal tab
Creating personal tab
You can edit any tab online and save it as your Personal.

You can edit, replace or remove any tab part or add personal notes – all changes will be seen only by you.

Personal tabs can be accessed anytime from any device, even offline.
Learn more »
comments
print report bad tab
47 comments total. Showing first comments.
0 reply
Stealth 245 Jan 04, 2002 07:00 PM

admn man this sems 100% perfect to me

0 reply
DyNasty 10 Jan 17, 2002 07:00 PM

this is the tits, nice one!!!!!

0 reply
bassboy 141 Jan 22, 2002 07:00 PM

great tab! rock maintain!!!

guest
Wanna post a correction for this tab? Suggest correction