Oops, an error
Loading. Please wait.

Clavicle tab

20,392 views 24 this week
2 commentsread comments
1 2 3 4 5
x 13
add to favorites
×
Save as Personal and add changes to this tab that will be seen only by you. Learn more ›
×
You can save this tab as Personal to edit and correct it or add notes. All changes will be seen only by you. Learn more »
launch autoscroll
font size
0
reset
how to read this tab
guitar tuner
edit
Autoscroll
slow
fast
+/-
esc
set tempo
stop
Clavicle
ALKALINE TRIO

tabbed by: jake harding

email: iwasjustcleaninganditwentoff@hotmail.com


[Intro]
e|---------------------------------|
B|---------------------------------|
G|---------------------------------|
D|--7-7-7-9-9-9-11-11-11--9-9-9----|
A|--0-0-0-0-0-0-0--0--0---7-7-7----|
E|--5-5-5-7-7-7-9--9--9---0-0-0----|


[Riff] (same notes faster & diff rhythm)

e|---------------------------|     e|------------------|
B|---------------------------|     B|------------------|
G|---------------------------| x3, G|---------7-7-7----|
D|-7-7-7-9-9-9-11-11-11-9-9-9|     D|-4-4-4-4-7-7-7----|
A|-0-0-0-0-0-0-0--0--0--7-7-7|     A|-4-4-4-4-5-5-5----|
E|-5-5-5-7-7-7-9--9--9--0-0-0|     E|-2-2-2-2----------|


[Verse] (same as riff, play x2)

e|---------------------------|     e|------------------|
B|---------------------------|     B|------------------|
G|---------------------------| x3, G|---------7-7-7----|
D|-7-7-7-9-9-9-11-11-11-9-9-9|     D|-4-4-4-4-7-7-7----|
A|-0-0-0-0-0-0-0--0--0--7-7-7|     A|-4-4-4-4-5-5-5----|
E|-5-5-5-7-7-7-9--9--9--0-0-0|     E|-2-2-2-2----------|


[Chorus]

e|----------------------------------------|
B|----------------------------------------|
G|----------------------------------------|
D|----------------------7-----------7-----|
A|-4-------4------------4-----------5-----|
E|-2-------0------------------------------|

e|----------------------------------------|
B|----------------------------------------|
G|----------------------------------------|
A|----------------------7------------7----|
D|-4-------4------------4------------5----|
E|-2-------0------------------------------|

e|------|
B|------|
G|------|
D|-7----|
A|-7----|
E|-5----|

e|---------------------------------------|
B|---------------------------------------|
G|-6-6-6-6--7-7-7-7--9-9-9-9--7-7-7-7----|
D|---------------------------------------|
A|-4-4-4-4--5-5-5-5--7-7-7-7--5-5-5-5----|
E|---------------------------------------|


Then it's back into the verse (but playing different to original)
  "Before you left...............please do"
e|-----------------------------------------|
B|-----------------------------------------|
G|--------------6-6-6-6-6--7-7-7-7-7-------|
D|-9-9-9-9-9-9--6-6-6-6-6--7-7-7-7-7-------|
A|-9-9-9-9-9-9--4-4-4-4-4--5-5-5-5-5-------|
E|-7-7-7-7-7-7-----------------------------|


e|----------------------------------------------|
B|----------------------------------------------|
G|----------------------------------------------|
D|-7-------------------4---------------2--------|
A|-7-------------------4---------------2--------|
E|-5-------------------2---------------0--------|

e|----------------|         e|-------|
B|----------------|         B|-------|
G|-9-9--7-7--6-6--|         G|-------|
D|----------------|         D|-7-7---|
A|-7-7--5-5--4-4--|         A|-7-7---|
E|----------------|         E|-5-5---|


e|--------------------------------------------|
B|--------------------------------------------|
G|--6-6-6--7-7-7-7-7--9-9-9-9--7-7-7-7--------|
D|--------------------------------------------|
A|--4-4-4--5-5-5-5-5--7-7-7-7--5-5-5-5--------|
E|--------------------------------------------|


e|-------------------|
B|-------------5-----|
G|-------------6-----|
D|-------------7-----|
A|---4-5-------7-----|
E|--------5----5-----|


e|-------------------------------------------------------|
B|-------------------------------------------------------|
G|-------------------------------------------------------|
D|-11-------11-----------7----------7---------------7----|
A|-9--------7------------4----------5---------------7----|
E|--------------------------------------------------5----|

            
            
Suggest correction
Creating personal tab
Creating personal tab
You can edit any tab online and save it as your Personal.

You can edit, replace or remove any tab part or add personal notes – all changes will be seen only by you.

Personal tabs can be accessed anytime from any device, even offline.
Learn more »
comments
print report bad tab
2 comments total.
+1 reply
nrlsky 180 Apr 27, 2008 05:10 PM

No idea why this is 5 stars. It's missing a few parts.

+1 reply
DeadAmerican 10 Aug 11, 2011 08:26 PM

Pretty bad tab, very confusing.

guest
You may want to rate the tab now too:
select rating
Wanna post a correction for this tab? Suggest correction