Oops, an error
Loading. Please wait.

Exploding Boy bass

1,728 views 1 this week
1 commentread comment
1 2 3 4 5
1 last vote to show rating
add to favorites
×
Save as Personal and add changes to this tab that will be seen only by you. Learn more ›
×
You can save this tab as Personal to edit and correct it or add notes. All changes will be seen only by you. Learn more »
launch autoscroll
font size
0
reset
guitar tuner
edit
Autoscroll
slow
fast
+/-
esc
set tempo
stop
Difficulty
intermediate
Artist: Alkaline Trio
Song: Exploding Boy (Cure cover)
Album: Alkaline Trio
Performed by: Dan Andriano

One of my favorite songs and one of the hardest to learn by ear.

This song is really fun to play if you can get into the strumming.

Intro/Verse/Chorus Riff (those are 10's):
G|--10-1010101010-1010101010-1010-10-1010101010-1010101010-1010-10-1010101010-1010101010-1010-|
D|---0--0-0-0-0-0--0-0-0-0-0--0-0--7--7-7-7-7-7--7-7-7-7-7--7-7-10-1010101010-1010101010-1010-|
A|--------------------------------------------------------------------------------------------|
E|--------------------------------------------------------------------------------------------|

Prechorus ("Tell yourself we'll start again..."):
G|----------------------------------------------------------------------------|
D|-------------------------------------------55h7p5---------------------------|
A|--------5-5555------------3-3333------------------5-------3-3333------------|
E|--3-333--------3-3--1-111--------1-1--3-333---------1-111--------1-1--------|

Prechorus Continued...
G|----------------------------------------------------------------------------|
D|--------------------------10-10101010---------------------------------------|
A|--------5-5555------8-888-------------8-8-6-66666-66666-66-6-66666-66666-66-|
E|--3-333--------3-3----------------------------------------------------------|

Order:
Intro/Verse/Chorus Riff x8
Prechorus x1
Intro/Verse/Chorus Riff x8
Prechorus x1
Intro/Verse/Chorus Riff x4

ENJOI =D

            
            
Suggest correction
Creating personal tab
Creating personal tab
You can edit any tab online and save it as your Personal.

You can edit, replace or remove any tab part or add personal notes – all changes will be seen only by you.

Personal tabs can be accessed anytime from any device, even offline.
Learn more »
Give kudos to tab author, rate the tab!
1 2 3 4 5
comments
print report bad tab
1 comment total.
0 reply
lilwelshrocker 324 Mar 16, 2008 08:45 AM

i have no idea who thisband are but this is a funky bass tab.

guest
Wanna post a correction for this tab? Suggest correction