Oops, an error
Loading. Please wait.
We have an official Help Me tab made by UG professional guitarists. Check out the tab »
×
5,183 views 1 this week
4 commentsread comments
1 2 3 4 5
x 3
add to favorites
×
Save as Personal and add changes to this tab that will be seen only by you. Learn more ›
×
You can save this tab as Personal to edit and correct it or add notes. All changes will be seen only by you. Learn more »
launch autoscroll
font size
0
reset
how to read this tab
guitar tuner
edit
Autoscroll
slow
fast
+/-
esc
set tempo
stop
Author
-------------------------------------------------------------------------------
                             SONG NAME - Band Name
-------------------------------------------------------------------------------
Tabbed by: Mike Straw
Email: mickeystraw@yahoo.com

Tuning: Standard

Intro (Piano)

                 at about 16 seconds play this twice
e|-14------------|----12-12-12-11-11-11-9------------------------------------|
B|----12---------|-----------------------------------------------------------|
G|---------------|-----------------------------------------------------------|
D|---------------|-----------------------------------------------------------|
A|---------------|-----------------------------------------------------------|
E|---------------|-----------------------------------------------------------|

Intro (Guitar)
 
        1st part (3x)       2nd part (At the end)
e|-----------------------|---------------------------------------------------|
B|-----------------------|---------------------------------------------------|
G|-4---------------------|---------------------------------------------------|
D|-4-(8x)-6------4-------|--2------4-----------------------------------------|
A|-2------6-(4x)-4-(4x)--|--2-(8x)-4-(8x)------------------------------------|
E|--------4------2-------|--0------2-----------------------------------------|

Verse 
          (3x)             after the third time play
e|------------------------------|--------------------------------------------|
B|------------------------------|--------------------------------------------|
G|-4-4----4-4-------------------|--------------------------------------------|
D|-4-4----4-4---6-6-6-6--4-4-4-4|--2------4----------------------------------|
A|-2-2----2-2---6-6-6-6--4-4-4-4|--2-(8X)-4-(8X)-----------------------------|
E|--------------4-4-4-4--2-2-2-2|--0------2----------------------------------|

Pre-Chorus

e|---------------------------------|-----------------------------------------|
B|---------------------------------|-----------------------------------------|
G|---------------4------6----------|-----------------------------------------|
D|-6------2------4-(2x)-6-(2x)-----|--2------4-------------------------------|
A|-6-(2x)-2-(2x)-2------4----------|--2-(8x)-4-(8x)--------------------------|
E|-4------0------------------------|--0------2-------------------------------|

Chorus

e|---------------------------------------------------------------------------|
B|---------------------------------------------------------------------------|
G|-4------------------------------4------------------------------------------|
D|-4-(8x)--2-------6------4-------4-(8x)--4-------6------4------2------5-----|
A|-2-------2-(8x)--6-(8x)-4-(8x)--2-------4-(8x)--6-(4x)-4-(4x)-2-(8x)-5-(1x)|
E|---------0-------4------2---------------2-------4------2------0------3-----|

 end of 2nd chorus
e|---------------------------------------------------------------------------|
B|---------------------------------------------------------------------------|
G|---------------------------------------------------------------------------|
D|--6------4------2----------------------------------------------------------|
A|--6-(4x)-4-(4x)-2-(8x)-----------------------------------------------------|
E|--4------2------0----------------------------------------------------------|


Bridge (part 1)after second chorus (la la la la)
e|----------------------------------------------2----------------------------|
B|-------4------------4-------------------------4----------------------------|
G|-----4---4--------4---4------4--------4-------4----------------------------|
D|---4-------4----4-------4-------6---------6---2----------------------------|
A|-2-------------------------------------------------------------------------|
E|--------------2------------4--------2--------------------------------------|

Bridge (part 2)
e|---------------------------------------------------------------------------|
B|---------------------------------------------------------------------------|
G|-4-------------------------------------------------------------------------|
D|-4-(8x)--4-------6------4------2-------------------------------------------|
A|-2-------4-(8x)--6-(4x)-4-(4x)-2-(8x)--------------------------------------|
E|---------2-------4------2------0-------------------------------------------|

Final Pre-Chorus
e|---------------------------------|-----------------------------------------|
B|---------------------------------|-----------------------------------------|
G|---------------4------6----------|-----------------------------------------|
D|-6------2------4-(4x)-6-(4x)-----|--2------4-------------------------------|
A|-6-(4x)-2-(4x)-2------4----------|--2-(8x)-4-(8x)--------------------------|
E|-4------0------------------------|--0------2-------------------------------|

Final Chorus

e|---------------------------------------------------------------------------|
B|---------------------------------------------------------------------------|
G|-4------------------------------4------------------------------------------|
D|-4-(8x)--2-------6------4-------4-(8x)--4-------6------4------2------5-----|
A|-2-------2-(8x)--6-(8x)-4-(8x)--2-------4-(8x)--6-(4x)-4-(4x)-2-(8x)-5-(1x)|
E|---------0-------4------2---------------2-------4------2------0------3-----|

Outro (Starts at last "la la la la")

e|---------------------------------------------------------------------------|
B|---------------------------------------------------------------------------|
G|--4------------------------------------------------------------------------|
D|--4-(8x)-2--------6------4------2------6------4------2---------------------|
A|--2------2-(8x)---6-(4x)-4-(4x)-2-(7x)-6-(4x)-4-(4x)-2-(1x)----------------|
E|---------0--------4------2------0------4------2------0---------------------|


===============================================================================

            
            
Suggest correction
Creating personal tab
Creating personal tab
You can edit any tab online and save it as your Personal.

You can edit, replace or remove any tab part or add personal notes – all changes will be seen only by you.

Personal tabs can be accessed anytime from any device, even offline.
Learn more »
Give kudos to tab author, rate the tab!
1 2 3 4 5
comments
print report bad tab
4 comments total. Showing first comments.
0 reply
Greenfinger182 1,136 Apr 28, 2008 05:55 AM

Chorus and bridge are just a bit off. I think you go to an F# when you should be going to a C# on a few occassions. Check out my tab, looks like we submitted at the same time haha. Guess you wanted to know this song as badly as I did.

0 reply
samroxu 10 Jul 06, 2008 07:57 AM

havnt tried it yet but looks really good and the intro is exactly what it got

0 reply
chromaticvision 4,067 Jul 18, 2008 01:21 PM

Did you even try? The chords are almost all wrong. And the bridge is not even close. Look at my version 3.

guest
You may want to rate the tab now too:
select rating
Wanna post a correction for this tab? Suggest correction