Oops, an error
Loading. Please wait.

I Found Away bass

version 1
version 1

Whole song

Interactive

7,488 views 6 this week
2 commentsread comments
1 2 3 4 5
x 5
add to favorites
×
Save as Personal and add changes to this tab that will be seen only by you. Learn more ›
×
You can save this tab as Personal to edit and correct it or add notes. All changes will be seen only by you. Learn more »
launch autoscroll
font size
0
reset
guitar tuner
backing track
0:00
0:00
edit
Autoscroll
slow
fast
+/-
esc
set tempo
stop
Author
Band: Alkaline Trio
Song: I found away
Album: Agony and Irony

Please rate

Verse (0:14)

G|----------------------------------|
D|-------------2222---------444-----| 
A|-244------244-----------------222-| x5
E|-----------------455--------------|

G|----------------------------------|
D|----------------------------------| 
A|-44-444-444-444-4-----------------|
E|-----------------55-555-57.-------|

Chorus (0:48)

G|----------------------------------|
D|----------------------------------| 
A|-4444444400000000--------22222222-| 
E|-----------------00000000---------|

G|----------------------------------|
D|----------------------------------| 
A|-4444444400000000--------33333333-| 
E|-----------------00000000---------|

G|----------------------------------|
D|----------------------------------| 
A|-4444444400000000--------22222222-| 
E|-----------------00000000---------|

G|----------------------------------|
D|---------22222222-----------------| 
A|-44444444--------2222222222222222-|
E|----------------------------------|

Pre-verse (1:15)

G|--------|
D|-444----| 
A|----222-|
E|--------|

Verse 2

G|----------------------------------|
D|-------------2222---------444-----| 
A|-244------244-----------------222-| x2
E|-----------------455--------------|

G|----------------------------------|
D|----------------------------------| 
A|-44-444-444-444-4-----------------|
E|-----------------55-555-57.-------|

Chorus 2 (1:34)

G|----------------------------------|
D|----------------------------------| 
A|-4444444400000000--------22222222-| 
E|-----------------00000000---------|

G|----------------------------------|
D|----------------------------------| 
A|-4444444400000000--------33333333-| 
E|-----------------00000000---------|

G|----------------------------------|
D|----------------------------------| 
A|-4444444400000000--------22222222-| 
E|-----------------00000000---------|

G|----------------------------------|
D|---------22222222-----------------| 
A|-44444444--------2222222222222222-|
E|----------------------------------|

Bridge 1 (1:57) x3

G|----------------------------------|
D|----------------------------------| 
A|-44444444444444440000000000000000-|
E|----------------------------------|

G|----------------------------------|
D|----------------------------------| 
A|----------------------------------|
E|-44444444444444445555555500000000-|


Bridge 2 (2:31)

G|----------------------------------|
D|----------------------------------| 
A|-44444444444444440000000000000000-|
E|----------------------------------|

G|----------------------------------|
D|----------------------------------| 
A|----------------------------------|
E|-4444444444444444555555550~-------|

Chorus 3 (2:44)

G|----------------------------------|
D|----------------------------------| 
A|-4444444400000000--------22222222-|
E|-----------------00000000---------|

G|----------------------------------|
D|---------22222222-----------------| 
A|-44444444--------2222222222222222-|
E|----------------------------------|

G|----------------------------------|
D|----------------------------------| 
A|-4444444400000000--------22222222-| 
E|-----------------00000000---------|

G|----------------------------------|
D|----------------------------------| 
A|-4444444400000000--------33333333-| 
E|-----------------00000000---------|

G|----------------------------------|
D|----------------------------------| 
A|-4444444400000000--------22222222-| 
E|-----------------00000000---------|

G|----------------------------------|
D|---------22222222-----------------| 
A|-44444444--------2222222222222222-|
E|----------------------------------|

G|----------------------------------|
D|----------------------------------| 
A|-4444444400000000--------22222222-| 
E|-----------------00000000---------|

G|----------------------------------|
D|----------------------------------| 
A|-4444444400000000--------33333333-| 
E|-----------------00000000---------|


G|----------------------------------|
D|----------------------------------| 
A|-4444444400000000--------22222222-|
E|-----------------00000000---------|

G|-----------------------------------|
D|---------22222222------------------| 
A|-44444444--------2222222222220-2-4~|
E|-----------------------------------|

            
            
Suggest correction
Creating personal tab
Creating personal tab
You can edit any tab online and save it as your Personal.

You can edit, replace or remove any tab part or add personal notes – all changes will be seen only by you.

Personal tabs can be accessed anytime from any device, even offline.
Learn more »
comments
print report bad tab
2 comments total.
0 reply
alfonzthemonkey 176 Jul 11, 2008 10:39 AM

spot on mate...one of the best songs on the album too

0 reply
manAVECbass 31 Mar 02, 2009 02:32 PM

great job 5 stars (:

guest
You may want to rate the tab now too:
select rating
Wanna post a correction for this tab? Suggest correction