Oops, an error
Loading. Please wait.

San Francisco tab

version 4
version 4

Whole song

106 views 6 this week
no commentswrite comment
1 2 3 4 5
1 last vote to show rating
add to favorites
×
Save as Personal and add changes to this tab that will be seen only by you. Learn more ›
×
You can save this tab as Personal to edit and correct it or add notes. All changes will be seen only by you. Learn more »
launch autoscroll
font size
0
reset
how to read this tab
guitar tuner
edit
Autoscroll
slow
fast
+/-
esc
set tempo
stop
Author
Difficulty
-------------------------------------------------------------------------------
                             San Francisco - Alkaline Trio
-------------------------------------------------------------------------------
Tabbed by: broskowfanboy

Of the 3 versions on here I felt we really could do with a complete tab.
So here it is. Transcribed for Auto Scroll. Comments and suggestions welcome.
Thanks


Tuning:Standard

0:00
e|---------------------------------------------------------------------------|
B|---------------------------------------------------------------------------|
G|-----------------9-9-9--1111-131313-------------9-----9---------9----------|
D|-----------------x-x-x--x-x--x-x-x--6-6-6-6-6-6-6-7-7-7-7-7-7-7-7-7--------|
A|-7-7-7-7-7-7-7-7-7-7-7--9-9--111111-0-0-0-0-0-0-0-0-0-0-0-0-0-0-0-0--------|
E|-0-0-0-0-0-0-0-0-0-0-0--0-0--0-0-0-----------------------------------------|

e|---------------------------------------------------------------------------|
B|---------------------------------------------------------------------------|
G|-----------------9-9-9--1111-131313-------------9---9----------------------|
D|-----------------x-x-x--x-x--x-x-x--6-6-6-6-6-6-6-6-7~--let ring-----------|
A|-7-7-7-7-7-7-7-7-7-7-7--9-9--111111-0-0-0-0-0-0-0-0-0~---------------------|
E|-0-0-0-0-0-0-0-0-0-0-0--0-0--0-0-0-----------------------------------------|


0:15
e|---------------------------------------------------------------------------|
B|---------------------------------------------------------------------------|
G|-----------------9-9-9--1111-131313-9-9-9-9-9-9-9-9-9-9-9-9-9-9-9-9--------|
D|-----------------x-x-x--x-x--x-x-x--6-6-6-6-6-6-6-6-7-7-7-7-7-7-7-7--------|
A|-7-7-7-7-7-7-7-7-7-7-7--9-9--111111-0-0-0-0-0-0-0-0-0-0-0-0-0-0-0-0--------|
E|-0-0-0-0-0-0-0-0-0-0-0--0-0--0-0-0-----------------------------------------|

e|---------------------------------------------------------------------------|
B|---------------------------------------------------------------------------|
G|-----------------9-9-9--1111-131313-9-9-9-9-9-9-9-9-9-9-9-1111111111-------|
D|-----------------x-x-x--x-x--x-x-x--6-6-6-6-6-6-6-6-7-7-7-x-x-x-x-x--------|
A|-7-7-7-7-7-7-7-7-7-7-7--9-9--111111-0-0-0-0-0-0-0-0-0-0-0-9-9-9-9-9--------|
E|-0-0-0-0-0-0-0-0-0-0-0--0-0--0-0-0-----------------------------------------|

e|---------------------------------------------------------------------------|
B|---------------------------------------------------------------------------|
G|-----------------9-9-9--1111-131313-9-9-9-9-9-9-9-9-9-9-9-9-9-9-9-9--------|
D|-----------------x-x-x--x-x--x-x-x--6-6-6-6-6-6-6-6-7-7-7-7-7-7-7-7--------|
A|-7-7-7-7-7-7-7-7-7-7-7--9-9--111111-0-0-0-0-0-0-0-0-0-0-0-0-0-0-0-0--------|
E|-0-0-0-0-0-0-0-0-0-0-0--0-0--0-0-0-----------------------------------------|

e|---------------------------------------------------------------------------|
B|---------------------------------------------------------------------------|
G|-----------------9-9-9--1111-131313-9-9-9-9-9-9-9-9-9-9-9-1111111111-------|
D|-----------------x-x-x--x-x--x-x-x--6-6-6-6-6-6-6-6-7-7-7-x-x-x-x-x--------|
A|-7-7-7-7-7-7-7-7-7-7-7--9-9--111111-0-0-0-0-0-0-0-0-0-0-0-9-9-9-9-9--------|
E|-0-0-0-0-0-0-0-0-0-0-0--0-0--0-0-0-----------------------------------------|


0:44
e|---------------------------------------------------------------------------|
B|---------------------------------------------------------------------------|
G|---------------------------------------------------------------------------|
D|-------------6-------6-------4-------9-------6-------6-------4-------------|
A|-----7---0-0-0-0-4-4-4-4-2-2-2-2-7-7-7-7-0-0-0-0-4-4-4-4-2-2-2-2-----------|
E|-0-0-0-0-------------------------------------------------------------------|
   * *   * * *   * * *   * * *   * * *   * * *   * * *   * * *   *
e|---------------------------------------------------------------------------|
B|---------------------------------------------------------------------------|
G|---------------------------------------------------------------------------|
D|-------------6-------6-------4---2-----------------------------------------|
A|-----7---0-0-0-0-4-4-4-4-2-2-2-2-0-let ring--------------------------------|
E|-0-0-0-0-------------------------------------------------------------------|
   * *   * * *   * * *   * * *   *

0:58
e|---------------------------------------------------------------------------|
B|---------------------------------------------------------------------------|
G|---------------------------------------------------------------------------|
D|-------6-6-6-6-666-6-6-4-4-4-4-449-9-9-6-6-7-6-666-6-6-4-4-4-4-44----------|
A|-7-7-7-0-0-0-0-004-4-4-2-2-2-2-227-7-7-0-0-0-0-004-4-4-2-2-2-2-22----------|
E|-0-0-0---------------------------------------------------------------------|


1:05
e|---------------------------------------------------------------------------|
B|---------------------------------------------------------------------------|
G|---------------------------------------------------------------------------|
D|-------------6-------6-------4-------9-------6-------6-------4-------------|
A|-----7---0-0-0-0-4-4-4-4-2-2-2-2-7-7-7-7-0-0-0-0-4-4-4-4-2-2-2-2-----------|
E|-0-0-0-0-------------------------------------------------------------------|
   * *   * * *   * * *   * * *   * * *   * * *   * * *   * * *   *
e|---------------------------------------------------------------------------|
B|---------------------------------------------------------------------------|
G|---------------------------------------------------------------------------|
D|-------------6-------6-------4---2-----------------------------------------|
A|-----7---0-0-0-0-4-4-4-4-2-2-2-2-0-let ring--------------------------------|
E|-0-0-0-0-------------------------------------------------------------------|
   * *   * * *   * * *   * * *   *

1:20
e|---------------------------------------------------------------------------|
B|---------------------------------------------------------------------------|
G|-----------------9-9-9-9-8-8-8-8-------------------------------------------|
D|-----------------x-x-x-x-x-x-x-x-------------------------------------------|
A|-7-7-7-7-7-7-7-7-7-7-7-7-6-6-6-6-6-6-6-6-6-6-6-6-9-9-9-9-9-9-9-9-----------|
E|-0-0-0-0-0-0-0-0-0-0-0-0-0-0-0-0-4-4-4-4-4-4-4-4-7-7-7-7-7-7-7-7-----------|

e|---------------------------------------------------------------------------|
B|---------------------------------------------------------------------------|
G|-----------------9-9-9-9-8-8-8-8-------------------------------------------|
D|-----------------x-x-x-x-x-x-x-x-------------------------------------------|
A|-7-7-7-7-7-7-7-7-7-7-7-7-6-6-6-6-6-6-6-6-6-6-6-6-9-9-9-9-9-9-9-9-----------|
E|-0-0-0-0-0-0-0-0-0-0-0-0-0-0-0-0-4-4-4-4-4-4-4-4-7-7-7-7-7-7-7-7-----------|


1:34
e|---------------------------------------------------------------------------|
B|---------------------------------------------------------------------------|
G|---------9-9-9-9----------6-6-6-6----------4-4-4-4-------------------------|
D|---------x-x-x-x-6-6-6-66-x-x-x-x-4-4-4-44-x-x-x-x-2~----------------------|
A|-7-7-7-777-7-7-7-4-4-4-44-4-4-4-4-2-2-2-22-2-2-2-2-0~-let ring-------------|
E|-0-0-0-00------------------------------------------------------------------|


1:42
e|---------------------------------------------------------------------------|
B|---------------------------------------------------------------------------|
G|---------------------------------------------------------------------------|
D|---------2---------------4p2-------------4p2-------------2/4/6-------------|
A|-0-0-0-0-0-0-0-0-0-0-0-0-0-0-0-0-0-0-0-0-0-0-0-0-0-0-0-0-0-----------------|
E|---------------------------------------------------------------------------|


1:49
e|---------------------------------------------------------------------------|
B|---------------------------------------------------------------------------|
G|-----------------9-9-9--1111-131313-9-9-9-9-9-9-9-9-9-9-9-9-9-9-9-9--------|
D|-----------------x-x-x--x-x--x-x-x--6-6-6-6-6-6-6-6-7-7-7-7-7-7-7-7--------|
A|-7-7-7-7-7-7-7-7-7-7-7--9-9--111111-0-0-0-0-0-0-0-0-0-0-0-0-0-0-0-0--------|
E|-0-0-0-0-0-0-0-0-0-0-0--0-0--0-0-0-----------------------------------------|

e|---------------------------------------------------------------------------|
B|---------------------------------------------------------------------------|
G|-----------------9-9-9--1111-131313-9-9-9-9-9-9-9-9-9-9-9-1111111111-------|
D|-----------------x-x-x--x-x--x-x-x--6-6-6-6-6-6-6-6-7-7-7-x-x-x-x-x--------|
A|-7-7-7-7-7-7-7-7-7-7-7--9-9--111111-0-0-0-0-0-0-0-0-0-0-0-9-9-9-9-9--------|
E|-0-0-0-0-0-0-0-0-0-0-0--0-0--0-0-0-----------------------------------------|


2:04
e|---------------------------------------------------------------------------|
B|---------------------------------------------------------------------------|
G|---------------------------------------------------------------------------|
D|-------------6-------6-------4-------9-------6-------6-------4-------------|
A|-----7---0-0-0-0-4-4-4-4-2-2-2-2-7-7-7-7-0-0-0-0-4-4-4-4-2-2-2-2-----------|
E|-0-0-0-0-------------------------------------------------------------------|
   * *   * * *   * * *   * * *   * * *   * * *   * * *   * * *   *
e|---------------------------------------------------------------------------|
B|---------------------------------------------------------------------------|
G|---------------------------------------------------------------------------|
D|-------------6-------6-----------2-----------------------------------------|
A|-----7---0-0-0-0-4-4-4-4-2-2-2-2-0-let ring--------------------------------|
E|-0-0-0-0-------------------------------------------------------------------|
   * *   * * *   * * *   * * *   *

2:18
e|---------------------------------------------------------------------------|
B|---------------------------------------------------------------------------|
G|-9-9-9-9-9-9-9-9-9-9-9-8-8-8-8-888/9-9-9-9-9-9-9-9-9-9-9-8-8-8-8-888-------|
D|-x-x-x-x-x-x-x-x-x-x-x-x-x-x-x-xxx/x-x-x-x-x-x-x-x-x-x-x-x-x-x-x-xxx-------|
A|-7-7-7-7-7-7-7-7-7-7-7-6-6-6-6-666/7-7-7-7-7-7-7-7-7-7-7-6-6-6-6-666-------|
E|---------------------------------------------------------------------------|


2:25
e|---------------------------------------------------------------------------|
B|---------------------------------------------------------------------------|
G|-------------------------------999\----------------------------------------|
D|-------------------------------xxx\----------------------------------------|
A|-7-----------------------------777\----------------------------------------|
E|-0-------------------------------------------------------------------------|
   

2:32
e|---------------------------------------------------------------------------|
B|---------------------------------------------------------------------------|
G|---------------------------------------------------------------------------|
D|-----------------------------------2---------------------------------------|
A|-6h7p6h7p6h7p6h7p6h7p6h7p6h7p6h7~--0---------------------------------------|
E|---------------------------------------------------------------------------|


2:40
e|---------------------------------------------------------------------------|
B|---------------------------------------------------------------------------|
G|-----------------9-9-9-9-8-8-8-8-------------------------------------------|
D|-----------------x-x-x-x-x-x-x-x-------------------------------------------|
A|-7-7-7-7-7-7-7-7-7-7-7-7-6-6-6-6-6-6-6-6-6-6-6-6-9-9-9-9-9-9-9-9-----------|
E|-0-0-0-0-0-0-0-0-0-0-0-0-0-0-0-0-4-4-4-4-4-4-4-4-7-7-7-7-7-7-7-7-----------|

e|---------------------------------------------------------------------------|
B|---------------------------------------------------------------------------|
G|-----------------9-9-9-9-8-8-8-8-------------------------------------------|
D|-----------------x-x-x-x-x-x-x-x-------------------------------------------|
A|-7-7-7-7-7-7-7-7-7-7-7-7-6-6-6-6-6-6-6-6-6-6-6-6-9-9-9-9-9-9-9-9-----------|
E|-0-0-0-0-0-0-0-0-0-0-0-0-0-0-0-0-4-4-4-4-4-4-4-4-7-7-7-7-7-7-7-7-----------|


2:54
e|---------------------------------------------------------------------------|
B|---------------------------------------------------------------------------|
G|---------9-9-9-9----------6-6-6-6----------4-4-4-4-------------------------|
D|---------x-x-x-x-6-6-6-66-x-x-x-x-4-4-4-44-x-x-x-x-2~----------------------|
A|-7-7-7-777-7-7-7-4-4-4-44-4-4-4-4-2-2-2-22-2-2-2-2-0~-let ring-------------|
E|-0-0-0-00------------------------------------------------------------------|


3:01
e|---------------------------------------------------------------------------|
B|---------------------------------------------------------------------------|
G|---------------------------------------------------------------------------|
D|---------2---------------4p2-------------2h4p2-----2-4-6-6-6---------------|
A|-0-0-0-0-0-0-0-0-0-0-0-0-0-0-0-0-0-0-0-0-0-0-0-0-0-0-0-0-0-0---------------|
E|---------------------------------------------------------------------------|


3:09
e|---------------------------------------------------------------------------|
B|---------------------------------------------------------------------------|
G|-----------------9-9-9-9-8-8-8-8-------------------------------------------|
D|-----------------x-x-x-x-x-x-x-x-------------------------------------------|
A|-7-7-7-7-7-7-7-7-7-7-7-7-6-6-6-6-6-6-6-6-6-6-6-6-9-9-9-9-9-9-9-9-----------|
E|-0-0-0-0-0-0-0-0-0-0-0-0-0-0-0-0-4-4-4-4-4-4-4-4-7-7-7-7-7-7-7-7-----------|

e|---------------------------------------------------------------------------|
B|---------------------------------------------------------------------------|
G|-----------------9-9-9-9-8-8-8-8-------------------------------------------|
D|-----------------x-x-x-x-x-x-x-x-------------------------------------------|
A|-7-7-7-7-7-7-7-7-7-7-7-7-6-6-6-6-6-6-6-6-6-6-6-6-9-9-9-9-9-9-9-9-----------|
E|-0-0-0-0-0-0-0-0-0-0-0-0-0-0-0-0-4-4-4-4-4-4-4-4-7-7-7-7-7-7-7-7-----------|


3:23
e|---------------------------------------------------------------------------|
B|---------------------------------------------------------------------------|
G|---------9-9-9-9----------6-6-6-6----------4-4-4-4-------------------------|
D|---------x-x-x-x-6-6-6-66-x-x-x-x-4-4-4-44-x-x-x-x-2~----------------------|
A|-7-7-7-777-7-7-7-4-4-4-44-4-4-4-4-2-2-2-22-2-2-2-2-0~-let ring-------------|
E|-0-0-0-00------------------------------------------------------------------|


3:28
e|---------------------------------------------------0-----------------------|
B|---------------------------------------------------0-----------------------|
G|---------------------------------------------------1-----------------------|
D|-2-------2-------2--------2-------2--------2-------2-----------------------|
A|-0-------0-------0--------0-------0--------0-------2--let ring-------------|
E|---------------------------------------------------0-----------------------|



************************************

| *   palm mute
| /   slide up
| \   slide down
| h   hammer-on
| p   pull-off
| ~   vibrato
| +   harmonic
| x   Mute note
| b   Bend
| pb  Pre-bend
| br  Bend release
| pbr Pre-bend release
| brb Bend release bend

************************************

            
            
Suggest correction
Creating personal tab
Creating personal tab
You can edit any tab online and save it as your Personal.

You can edit, replace or remove any tab part or add personal notes – all changes will be seen only by you.

Personal tabs can be accessed anytime from any device, even offline.
Learn more »
Give kudos to tab author, rate the tab!
1 2 3 4 5
comments
print report bad tab
guest
You may want to rate the tab now too:
select rating
Wanna post a correction for this tab? Suggest correction