Oops, an error
Loading. Please wait.

Million Bucks bass

by All
775 views 1 this week
2 commentsread comments
1 2 3 4 5
2 more votes to show rating
add to favorites
×
Save as Personal and add changes to this tab that will be seen only by you. Learn more ›
×
You can save this tab as Personal to edit and correct it or add notes. All changes will be seen only by you. Learn more »
launch autoscroll
font size
0
reset
guitar tuner
edit
Autoscroll
slow
fast
+/-
esc
set tempo
stop
ALL
Million Bucks (Pummel - 1995)

Tuning: Half-step down

> = 8 strums
* = Let ring a bit

Intro
Part I 2x / Part II 1x
G----------------------------------------/----------------------|
D-----999---888-66-------999---888-66----/---------------66-88--|
A-666----999------77--666---999-------77-/-99999999-77-99-------|
E----------------------------------------/----------------------|

Verse 1 2x
G----------------------------------------|
D----------------------------------------|
A----------------------------------------|
E-7>>>-00-22-44-55--7>-4>-2>-00-22-44-55-|

Verse 2

Part I 2x / Part II 1x / Part I 1x / Part 3 1x
G---------------------/-----888---666-------/-------------------|
D-----999---888-66----/--666---999---99-88--/----999----9999999-|
A-666----999------77--/---------------------/-666---7777--------|
E---------------------/---------------------/-------------------|

Chorus
G----------------------------------------------------------------|
D--------------------------------9-8---6>----------------66-88---|
A-------6----7>-------------9999-----9----7>-----9>-77-99--------|
E-44444----7>----7-9-99999-------------------7-9>----------------|

Verse 1 2x
Verse 2 1x
Chorus 1x
Verse 1 2x

Outro
Part 1 2x / Part 2 1x
G---------------------------------------/----------------------|
D---99--88--66--------------------------/----999---888-66------|
A----------------99--55--44-------------/-666---999-------7*---|
E-77--77--77---77--77--77---00-22-44-55-/-------------------7*-|

            
            
Suggest correction
Creating personal tab
Creating personal tab
You can edit any tab online and save it as your Personal.

You can edit, replace or remove any tab part or add personal notes – all changes will be seen only by you.

Personal tabs can be accessed anytime from any device, even offline.
Learn more »
Give kudos to tab author, rate the tab!
1 2 3 4 5
comments
print report bad tab
2 comments total.
0 reply
macaroni205 20 Feb 16, 2015 11:59 PM

sounds pretty awesome!!!!!!
please do more of the album pummel really cooooool!!!!!!!!!!!!

0 reply
YrWelfareCheck 73 Apr 07, 2015 11:20 PM

hey man! haven,t played this stuff in AGES! I'll see what I can do!

guest
You may want to rate the tab now too:
select rating
Wanna post a correction for this tab? Suggest correction