Oops, an error
Loading. Please wait.
We have an official There Is No Business To Be Done On A Dead Planet tab made by UG professional guitarists. Check out the tab »
×

There Is No Business To Be Done On A Dead Planet bass

7,458 views 1 this week
2 commentsread comments
1 2 3 4 5
x 3
add to favorites
×
Save as Personal and add changes to this tab that will be seen only by you. Learn more ›
×
You can save this tab as Personal to edit and correct it or add notes. All changes will be seen only by you. Learn more »
launch autoscroll
font size
0
reset
guitar tuner
edit
Autoscroll
slow
fast
+/-
esc
set tempo
stop
Tuning: Drop B
high to low (E, B, F#, B, A)


  
E ||-------------------|---------------------------------|
B ||-------------------|---------------------------------|
F#||-------------------|---------------------------------|
B ||--0----------------|--0-0-0------0-0-0---------0-0-0-|
A ||-------------------|---------------------------------|

 
------------------------|--------------------------------|
------------------------|--------------------------------|
------------------------|--------------------------------|
-----0-0-0--------------|--0-0-0------0-0-0--------0-0-0-|
------------------------|--------------------------------|
 

------------------------|----------------------------------------|
------------------------|------------9-6-----------9-6-8-5-------|
------------------------|--------8-5-----------8-5---------------|
-----0-0-0--------------|--0-0-0---------0-0-0-------------0-0-0-|
------------------------|----------------------------------------|

  
------------------------9-6-8-5-8-5-|---------------------------------------|
----------------9-6-8-5-------------|------------9-6-----------9-6-8-5------|
--8-5-------8-5---------------------|--------8-5-----------8-5--------------|
------0-0-0-------------------------|--0-0-0---------0-0-0-------------0-0-0|
------------------------------------|---------------------------------------|

  
------------------------9-6-8-5-8-5-|
----------------9-6-8-5-------------|
--8-5-------8-5---------------------|
------0-0-0-------------------------|
------------------------------------|

                 
--12----------11----------10----------9---------|-------------------|
-----13-12-------12-11-------11-10------10-9----|-------------------|
-----------13----------12----------11--------10-|-------------------|
------------------------------------------------|-------------------|
------------------------------------------------|-------------------|
     

-------------------|-------------------|
-------------------|-------------------|
-------------------|-------------------|
-------------------|-------------------|
-------------------|-------------------|

  
--14----------------------------------------------|
-----14-15-12-14-11-12----11----------------------|
-----------------------13----12-13-11-12----11----|
-----------------------------------------15----14-|
--------------------------------------------------|

 
------------7-6-------------------|------------7-6-------------------|
--------7-8-----7-6---------5-----|--------7-8-----7-6---------5-----|
------8-------------7---7-8---8-7-|------8-------------7---7-8---8-7-|
--0-5-----------------7-----------|--0-5-----------------7-----------|
----------------------------------|----------------------------------|

  
------------7-6-------------------|
--------7-8-----7-6---------5-----|
------8-------------7---7-8---8-7-|
--0-5-----------------7-----------|
----------------------------------|

 
--14----------------------------------------------|
-----14-15-12-14-11-12----11----------------------|
-----------------------13----12-13-11-12----11----|
-----------------------------------------15----14-|
--------------------------------------------------|

  
------------7-6-------------------|------------7-6-------------------|
--------7-8-----7-6---------5-----|--------7-8-----7-6---------5-----|
------8-------------7---7-8---8-7-|------8-------------7---7-8---8-7-|
--0-5-----------------7-----------|--0-5-----------------7-----------|
----------------------------------|----------------------------------|

 
------------7-6-------------------|
--------7-8-----7-6---------5-----|
------8-------------7---7-8---8-7-|
--0-5-----------------7-----------|
----------------------------------|

 
--14----------------------------------------------|
-----14-15-12-14-11-12----11----------------------|
-----------------------13----12-13-11-12----11----|
-----------------------------------------15----14-|
--------------------------------------------------|


--------------------------------|--------------------------------|
--------------------------------|----------------------------5-8-|
-----8-5-8-5----8-5-8-5-8-5-4-7-|-----8-5-8-5----8-5-8-5-8-5-----|
--0----------0------------------|--0----------0------------------|
--------------------------------|--------------------------------|

   
--------------------------------|----------------------|
--------------------------------|----------------------|
-----8-5-8-5----8-5-8-5-8-5-4-7-|------------8----7----|
--0----------0------------------|-------6--------------|
--------------------------------|--5-------------------|

  
--------------------------------|--------------------------------|
--------------------------------|----------------------------5-8-|
-----8-5-8-5----8-5-8-5-8-5-4-7-|-----8-5-8-5----8-5-8-5-8-5-----|
--0----------0------------------|--0----------0------------------|
--------------------------------|--------------------------------|

               
--------------------------------|----------------------|-------------------|
--------------------------------|----------------------|-------------------|
-----8-5-8-5----8-5-8-5-8-5-4-7-|------------8----7----|-------------------|
--0----------0------------------|-------6--------------|-------------------|
--------------------------------|--5-------------------|-------------------|


----------------------------------|----------------------------------|
----------------------------------|----------------------------------|
----------------------------------|----------------------------------|
--0-0-0-0-0-0-0-0-0-0-0-0-0-0-0-0-|--2-2-2-2-2-2-2-2-3-3-3-3-3-3-3-3-|
----------------------------------|----------------------------------|

 
----------------------------------|
----------------------------------|
--4-4-4-4-4-4-4-4-4-4-4-4-4-4-4-4-|
----------------------------------|
----------------------------------|


--14----------------------------------------------|
-----14-15-12-14-11-12----11----------------------|
-----------------------13----12-13-11-12----11----|
-----------------------------------------15----14-|
--------------------------------------------------|


----------------------------------|----------------------------------|
----------------------------------|----------------------------------|
----------------------------------|----------------------------------|
--0-0-0-0-0-0-0-0-0-0-0-0-0-0-0-0-|--2-2-2-2-2-2-2-2-3-3-3-3-3-3-3-3-|
----------------------------------|----------------------------------|


----------------------------------|
----------------------------------|
--4-4-4-4-4-4-4-4-4-4-4-4-4-4-4-4-|
----------------------------------|
----------------------------------|

                
--14----------------------------------------------|-------------------|
-----14-15-12-14-11-12----11----------------------|-------------------|
-----------------------13----12-13-11-12----11----|-------------------|
-----------------------------------------15----14-|-------------------|
--------------------------------------------------|-------------------|

------------------------||---------------------------------------|
------------------------||*--------------------------------------|
------------------------||---------------------------------------|
----------0-0-1--0-0-1--||*--0-0-0---0-0-0---0-0-0---------0-0-0-|
------------------------||---------------------------------------|


  
---------------------------------------|
---------------------------------------|
---------------------------------------|
-----0-0-0----0-0-0---0-0-0---0-0-0----|
---------------------------------------|

          
-----------------------------------------|-------------------------||
-----------------------------------------|------------------------*||
-----------------------------------------|-------------------------||
--0-0-0------0-0-0-0-0-0---0-0-0---0-0-0-|-----0-0-0--------------*||
-----------------------------------------|-------------------------||


 
------------------------||---------------------------------------|
------------------------||*--------------------------------------|
------------------------||---------------------------------------|
-----0-0-0--------------||*--0-0-0---0-0-0---0-0-0---------0-0-0-|
------------------------||---------------------------------------|


---------------------------------------|
---------------------------------------|
---------------------------------------|
-----0-0-0----0-0-0---0-0-0---0-0-0----|
---------------------------------------|

            
-----------------------------------------|-------------------------||
-----------------------------------------|------------------------*||
-----------------------------------------|-------------------------||
-----------------------------------------|------------------------*||
--1-1-1------1-1-1-1-1-1---1-1-1---1-1-1-|-----1-1-1---------------||

   
------------------------------|
------------------------------|
------------------------------|
----------------0-0-1--0-0-1--|
-----1-1-1--------------------|


Solo (Tapped)
 
|------------------14----------------------14-------|
|*-----12-14----12----14-15----12-14----12----14-15-|
|---------------------------------------------------|
|*--------------------------------------------------|
|---14-------14-------------14-------14-------------|

  
-----------------14----------------------14-------|
-----12-14----12----14-15----12-14----12----14-15-|
--------------------------------------------------|
--------------------------------------------------|
--14-------14-------------14-------14-------------|

 
-----------------13----------------------13-------|
-----11-13----11----13-14----11-13----11----13-14-|
--------------------------------------------------|
--------------------------------------------------|
--13-------13-------------13-------13-------------|

    
-----------------13----------------------13--------||
-----11-13----11----13-14----11-13----11----13-14-*||
---------------------------------------------------||
--------------------------------------------------*||
--13-------13-------------13-------13--------------||


-----------------13----------------------13-------|
-----11-13----11----13-14----11-13----11----13-14-|
--------------------------------------------------|
--------------------------------------------------|
--13-------13-------------13-------13-------------|


 
-----------------------------||---------------------------------------|
-----------------------------||*--------------------------------------|
-----------------------------||---------------------------------------|
--0-1----0-1----0-1-0-0------||*--0-0-0---0-0-0---0-0-0---------0-0-0-|
-----------------------------||---------------------------------------|

   
---------------------------------------|
---------------------------------------|
---------------------------------------|
-----0-0-0----0-0-0---0-0-0---0-0-0----|
---------------------------------------|

              
-----------------------------------------|-------------------------||
-----------------------------------------|------------------------*||
-----------------------------------------|-------------------------||
--0-0-0------0-0-0-0-0-0---0-0-0---0-0-0-|-----0-0-0--------------*||
-----------------------------------------|-------------------------||

  
---------------------------------|--------------------------------|
*--------------------------------|----------------------------5-8-|
------8-5-8-5----8-5-8-5-8-5-4-7-|-----8-5-8-5----8-5-8-5-8-5-----|
*--0----------0------------------|--0----------0------------------|
---------------------------------|--------------------------------|

      
--------------------------------|-----------------------||
--------------------------------|----------------------*||
-----8-5-8-5----8-5-8-5-8-5-4-7-|------------8----7-----||
--0----------0------------------|-------6--------------*||
--------------------------------|--5--------------------||

     
----------------------------||
----------------------------||
-----8-5-8-5-4-7------------||
--0--------------0----------||
----------------------------||

            
            
Suggest correction
Creating personal tab
Creating personal tab
You can edit any tab online and save it as your Personal.

You can edit, replace or remove any tab part or add personal notes – all changes will be seen only by you.

Personal tabs can be accessed anytime from any device, even offline.
Learn more »
Give kudos to tab author, rate the tab!
1 2 3 4 5
comments
print report bad tab
2 comments total.
0 reply
ballz_deep_bass 16 Apr 02, 2008 04:48 PM

great job but the tapping part goes like this.

------------------12-------------------------11------------
------10-12----10----10-13-x4-------9-11---9----9-12-x4----
---10-------10--------------------9------9-----------------
-----------------------------------------------------------
-----------------------------------------------------------

0 reply
Necrotic 1,216 Jul 23, 2010 04:48 PM

i believe the tapping part was 2 frets too high

guest
You may want to rate the tab now too:
select rating
Wanna post a correction for this tab? Suggest correction