Oops, an error
Loading. Please wait.
We have an official There Is No Business To Be Done On A Dead Planet tab made by UG professional guitarists. Check out the tab »
×

There Is No Business To Be Done On A Dead Planet bass

3,863 views 1 this week
no commentswrite comment
1 2 3 4 5
2 more votes to show rating
add to favorites
×
Save as Personal and add changes to this tab that will be seen only by you. Learn more ›
×
You can save this tab as Personal to edit and correct it or add notes. All changes will be seen only by you. Learn more »
launch autoscroll
font size
0
reset
guitar tuner
edit
Autoscroll
slow
fast
+/-
esc
set tempo
stop
The version 2 bass tab of this is correct except for a couple of details, but because I
become a big fan of these guys I thought it would be worth my time to fix it and make
that all of you are doing this song justice :). I also transcribed it for 5-string bass 
tuning instead of the alternate tuning that was used in the version 2 tab. Enjoy.

NOTE: I also reconfigured the fingering used for the bass solo to one that I personally
to be the most congenial. It is performed with two-handed tapping, and I wrote out
the first measure of the solo which notes I tap with which fingers in the pattern. Here 
the short legend for the notation I used: 1= fret hand index finger, 3= fret hand ring
I= picking hand index finger, M= picking hand middle finger(the legend for
all of the other notation used in this is at the bottom of the page). I only wrote this
for the first bar since this same pattern is repeated through the entire solo.

     W                   T T S Q    T T S Q.     T T S
G||-------------------|--------------------------------|
D||-------------------|--------------------------------|
A||-------------------|--------------------------------|
E||-------------------|--------------------------------|
B||--0----------------|--0-0-0------0-0-0--------0-0-0-|


  E  T T S H.              T T S Q    T T S Q.     T T S
------------------------|--------------------------------|
------------------------|--------------------------------|
------------------------|--------------------------------|
------------------------|--------------------------------|
-----0-0-0--------------|--0-0-0------0-0-0--------0-0-0-|


  E  T T S H                  T T S  S S  S S T T S  S S  S S  S S T T S
---------------------------|---------------------------------------------|
---------------------------|---------------------------------------------|
---------------------------|-------------11-8------------11-8-10-7-------|
---------------------------|--------10-7------------10-7-----------------|
-----0-0-0-----------------|--0-0-0-----------0-0-0----------------0-0-0-|


   S S T T S  S S  S S  S S  S S  S S  S S
-------------------------------------------|
----------------------------11-8-10-7-10-7-|
------------------11-8-10-7----------------|
--10-7-------10-7--------------------------|
-------0-0-0-------------------------------|


  T T S  S S  S S T T S  S S  S S  S S T T S
---------------------------------------------|
---------------------------------------------|
-------------11-8------------11-8-10-7-------|
--------10-7------------10-7-----------------|
--0-0-0-----------0-0-0----------------0-0-0-|


   S S T T S  S S  S S  S S  S S  S S  S S
-------------------------------------------|
----------------------------11-8-10-7-10-7-|
------------------11-8-10-7----------------|
--10-7-------10-7--------------------------|
-------0-0-0-------------------------------|


   S  S  S  S  S  S  S  S  S  S  S  S  S  S  S  S    E  E  H.
--------------------------------------------------|---------------------|
--14----------13----------12----------11----------|---------------------|
-----15-14-------14-13-------13-12-------12-11----|---------------------|
-----------15----------14----------13----------12-|---------------------|
--------------------------------------------------|--0------------------|


  W                   W
-------------------|-------------------|
-------------------|-------------------|
-------------------|-------------------|
-------------------|-------------------|
-------------------|-------------------|


   S S  S  S  S S  S  S S  S  S S  S  S S S
--------------------------------------------|
--12-9-11-----------------------------------|
----------10-13-9-10----9-------------------|
---------------------12---10-12-9-10----9---|
-------------------------------------12---8-|


  S S  S S  S S S S S S S S  S S  S S    S S  S S  S S S S S S S S  S S  S
--------------------------------------|--------------------------------------|
--------------9-8---------------------|--------------9-8---------------------|
---------9-10-----9-8----------7------|---------9-10-----9-8----------7------|
------10--------------9---9-10---10-9-|------10--------------9---9-10---10-9-|
--0-7-------------------7-------------|--0-7-------------------7-------------|


  S S  S S  S S S S S S S S  S S  S S
--------------------------------------|
--------------9-8---------------------|
---------9-10-----9-8----------7------|
------10--------------9---9-10---10-9-|
--0-7-------------------7-------------|


   S S  S  S  S S  S  S S  S  S S  S  S S S
--------------------------------------------|
--12-9-11-----------------------------------|
----------10-13-9-10----9-------------------|
---------------------12---10-12-9-10----9---|
-------------------------------------12---8-|


  S S  S S  S S S S S S S S  S S  S S    S S  S S  S S S S S S S S  S S  S S
--------------------------------------|--------------------------------------|
--------------9-8---------------------|--------------9-8---------------------|
---------9-10-----9-8----------7------|---------9-10-----9-8----------7------|
------10--------------9---9-10---10-9-|------10--------------9---9-10---10-9-|
--0-7-------------------7-------------|--0-7-------------------7-------------|


  S S  S S  S S S S S S S S  S S  S S
--------------------------------------|
--------------9-8---------------------|
---------9-10-----9-8----------7------|
------10--------------9---9-10---10-9-|
--0-7-------------------7-------------|


   S S  S  S  S S  S  S S  S  S S  S  S S S
--------------------------------------------|
--12-9-11-----------------------------------|
----------10-13-9-10----9-------------------|
---------------------12---10-12-9-10----9---|
-------------------------------------12---8-|


  E   S S  S S E   S S  S S  S S S S    E   S S  S S E   S S  S S  S S S  S
-------------------------------------|--------------------------------------|
-------------------------------------|--------------------------------------|
-------------------------------------|---------------------------------7-10-|
-----10-7-10-7----10-7-10-7-10-7-6-9-|-----10-7-10-7----10-7-10-7-10-7------|
--0------------0---------------------|--0------------0----------------------|


  E   S S  S S E   S S  S S  S S S S    Q    Q     Q    Q
-------------------------------------|-----------------------|
-------------------------------------|-----------------------|
-------------------------------------|------------10----9----|
-----10-7-10-7----10-7-10-7-10-7-6-9-|-------8---------------|
--0------------0---------------------|--5--------------------|


  E   S S  S S E   S S  S S  S S S S    E   S S  S S E   S S  S S  S S S  S
-------------------------------------|--------------------------------------|
-------------------------------------|--------------------------------------|
-------------------------------------|---------------------------------7-10-|
-----10-7-10-7----10-7-10-7-10-7-6-9-|-----10-7-10-7----10-7-10-7-10-7------|
--0------------0---------------------|--0------------0----------------------|


  E   S S  S S E   S S  S S  S S S S    Q    Q     Q    Q
-------------------------------------|-----------------------|
-------------------------------------|-----------------------|
-------------------------------------|------------10----9----|
-----10-7-10-7----10-7-10-7-10-7-6-9-|-------8---------------|
--0------------0---------------------|--5--------------------|


  E  E  H.              S S S S S S S S S S S S S S S S
---------------------|----------------------------------|
---------------------|----------------------------------|
---------------------|----------------------------------|
---------------------|----------------------------------|
--0------------------|--0-0-0-0-0-0-0-0-0-0-0-0-0-0-0-0-|


  S S S S S S S S S S S S S S S S    S S S S S S S S S S S S S S S S
----------------------------------|----------------------------------|
----------------------------------|----------------------------------|
----------------------------------|----------------------------------|
----------------------------------|--6-6-6-6-6-6-6-6-6-6-6-6-6-6-6-6-|
--2-2-2-2-2-2-2-2-3-3-3-3-3-3-3-3-|----------------------------------|


   S S  S  S  S S  S  S S  S  S S  S  S S S    S S S S S S S S S S S S S S S S
--------------------------------------------|----------------------------------|
--12-9-11-----------------------------------|----------------------------------|
----------10-13-9-10----9-------------------|----------------------------------|
---------------------12---10-12-9-10----9---|----------------------------------|
-------------------------------------12---8-|--0-0-0-0-0-0-0-0-0-0-0-0-0-0-0-0-|


  S S S S S S S S S S S S S S S S    S S S S S S S S S S S S S S S S
----------------------------------|----------------------------------|
----------------------------------|----------------------------------|
----------------------------------|----------------------------------|
----------------------------------|--6-6-6-6-6-6-6-6-6-6-6-6-6-6-6-6-|
--2-2-2-2-2-2-2-2-3-3-3-3-3-3-3-3-|----------------------------------|


   S S  S  S  S S  S  S S  S  S S  S  S S S    W
--------------------------------------------|-------------------|
--12-9-11-----------------------------------|-------------------|
----------10-13-9-10----9-------------------|-------------------|
---------------------12---10-12-9-10----9---|-------------------|
-------------------------------------12---8-|-------------------|


  Q.     S S E  S S E       T T S S T T S S T T S Q.     T T T T
-----------------------||----------------------------------------|
-----------------------||*---------------------------------------|
-----------------------||----------------------------------------|
-----------------------||*---------------------------------------|
---------0-0-1--0-0-1--||---0-0-0---0-0-0---0-0-0----------0-0-0-|


  E  T T S E  T T S S T T S S T T S E
---------------------------------------|
---------------------------------------|
---------------------------------------|
---------------------------------------|
-----0-0-0----0-0-0---0-0-0---0-0-0----|

                                          (end of first repetition)
  T T S Q    T T S T T S S T T S S T T S    E  T T S Q    E  Q.
-----------------------------------------|---------------------------||
-----------------------------------------|--------------------------*||
-----------------------------------------|---------------------------||
-----------------------------------------|--------------------------*||
--0-0-0------0-0-0-0-0-0---0-0-0---0-0-0-|-----0-0-0------0----------||

(end of second repetition)
  E  T T S H.                T T S S T T S S T T S Q.     T T T T
------------------------||----------------------------------------|
------------------------||*---------------------------------------|
------------------------||----------------------------------------|
------------------------||*---------------------------------------|
-----0-0-0--------------||---0-0-0---0-0-0---0-0-0----------0-0-0-|


  E  T T S E  T T S S T T S S T T S E
---------------------------------------|
---------------------------------------|
---------------------------------------|
---------------------------------------|
-----0-0-0----0-0-0---0-0-0---0-0-0----|

                                          (end of first repetition)
  T T S Q    T T S T T S S T T S S T T S    E  T T S H.
-----------------------------------------|-------------------------||
-----------------------------------------|------------------------*||
-----------------------------------------|-------------------------||
-----------------------------------------|------------------------*||
--0-0-0------0-0-0-0-0-0---0-0-0---0-0-0-|-----0-0-0---------------||

(end of second repetition)       Bass Solo
  E  T T S Q    S S E  S S E       S S S S S S S   S S S S S S S S   S
------------------------------||-------------9-----------------9-------|
------------------------------||*----7-9---7---9s-10---7-9---7---9s-10-|
------------------------------||---------------------------------------|
------------------------------||*--5-----5-----------5-----5-----------|
-----0-0-0------0-0-1--0-0-1--||---------------------------------------|
                                   1 3 I 1 3 M I     1 3 I 1 3 M I


  S S S S S S S   S S S S S S S S   S    S S S S S S S S S S S S S S S S
------------9-----------------9-------|------------8---------------8-----|
----7-9---7---9s-10---7-9---7---9s-10-|----6-8---6---8-9---6-8---6---8-9-|
--------------------------------------|----------------------------------|
--5-----5-----------5-----5-----------|--4-----4---------4-----4---------|
--------------------------------------|----------------------------------|

(end of first repetition)            (end of second repetition)
  S S S S S S S S S S S S S S S S      S S S S S S S S S S S S S S S S
------------8---------------8------||------------8---------------8-----|
----6-8---6---8-9---6-8---6---8-9-*||----6-8---6---8-9---6-8---6---8-9-|
-----------------------------------||----------------------------------|
--4-----4---------4-----4---------*||--4-----4---------4-----4---------|
-----------------------------------||----------------------------------|


  S S E  S S E  S S S S Q         T T S S T T S S T T S Q.     T T T T
-----------------------------||----------------------------------------|
-----------------------------||*---------------------------------------|
-----------------------------||----------------------------------------|
-----------------------------||*---------------------------------------|
--0-1----0-1----0-1-0-0------||---0-0-0---0-0-0---0-0-0----------0-0-0-|


  E  T T S E  T T S S T T S S T T S E
---------------------------------------|
---------------------------------------|
---------------------------------------|
---------------------------------------|
-----0-0-0----0-0-0---0-0-0---0-0-0----|


  T T S Q    T T S T T S S T T S S T T S    E  T T S H.
-----------------------------------------|-------------------------||
-----------------------------------------|------------------------*||
-----------------------------------------|-------------------------||
-----------------------------------------|------------------------*||
--0-0-0------0-0-0-0-0-0---0-0-0---0-0-0-|-----0-0-0---------------||


   E   S S  S S E   S S  S S  S S S S    E   S S  S S E   S S  S S  S S S  S
--------------------------------------|--------------------------------------|
*-------------------------------------|--------------------------------------|
--------------------------------------|---------------------------------7-10-|
*-----10-7-10-7----10-7-10-7-10-7-6-9-|-----10-7-10-7----10-7-10-7-10-7------|
---0------------0---------------------|--0------------0----------------------|

                                      (end of first repetition)
  E   S S  S S E   S S  S S  S S S S    Q    Q     Q    Q
-------------------------------------|------------------------||
-------------------------------------|-----------------------*||
-------------------------------------|------------10----9-----||
-----10-7-10-7----10-7-10-7-10-7-6-9-|-------8---------------*||
--0------------0---------------------|--5---------------------||

(end of second repetition)
  E   S S  S S S S E  Q.
-----------------------------|-------------------|-------------------|
-----------------------------|-------------------|-------------------|
-----------------------------|-------------------|-------------------|
-----10-7-10-7-6-9-----------|-------------------|-------------------|
--0----------------0---------|-------------------|-------------------|


-------------------|-------------------|-------------------|-------------------|
-------------------|-------------------|-------------------|-------------------|
-------------------|-------------------|-------------------|-------------------|
-------------------|-------------------|-------------------|-------------------|
-------------------|-------------------|-------------------|-------------------|


-------------------|-------------------|-------------------||
-------------------|-------------------|-------------------||
-------------------|-------------------|-------------------||
-------------------|-------------------|-------------------||
-------------------|-------------------|-------------------||


Duration Legend
---------------
W - whole
H - half
Q - quarter
E - 8th
S - 16th
T - 32nd
X - 64th
. - note dotted
|-n-|  - n-tuplets


Tablature Legend
----------------
L - tied note
x - dead note
g - grace note
(n) - ghost note
> - accentuded note
NH - natural harmonic
AH - artificial harmonic
TH - tapped harmonic
SH - semi harmonic
PH - pitch harmonic
h - hammer on
p - pull off
b - bend
br - bendRelease
pb - preBend
pbr - preBendRelease
brb - bendReleaseBend
\n/ - tremolo bar dip
\n - tremolo bar dive
-/n - tremolo bar Release up
/n\ - tremolo bar inverted dip
/n - tremolo bar return
-\n - tremolo bar Release down
S - shift slide
s - legato slide
/ -  slide into from below or out of upwards
\ -  slide into from above or out of downwards
~ - vibrato
W - wide vibrato
tr - trill
TP - tremolo picking
T - tapping
S - slap
P - pop
< - fade in
^ - brush up
v - brush down

            
            
Suggest correction
Creating personal tab
Creating personal tab
You can edit any tab online and save it as your Personal.

You can edit, replace or remove any tab part or add personal notes – all changes will be seen only by you.

Personal tabs can be accessed anytime from any device, even offline.
Learn more »
Give kudos to tab author, rate the tab!
1 2 3 4 5
comments
print report bad tab
guest
You may want to rate the tab now too:
select rating
Wanna post a correction for this tab? Suggest correction