Oops, an error
Loading. Please wait.
We have an official There Is No Business To Be Done On A Dead Planet tab made by UG professional guitarists. Check out the tab »
×

There Is No Business To Be Done On A Dead Planet power

2,140 views 1 this week
1 commentread comment
1 2 3 4 5
x 3
add to favorites
guitar tuner
Autoscroll
slow
fast
+/-
esc
set tempo
stop
"There Is No Business To Be Done On A Dead Planet"
demo version
Play now

or get full version for Free

×
Get full version now!
Learn and play this song
in Tab Pro
Try for free

or get $10 off Welcome Bonus

Get welcome bonus
Get access to Tab Pro version of “There Is No Business To Be Done On A Dead Planet”!
Tab Pro is a premium guitar tab service, available on PC, Mac, iOS and Android
TRY FOR FREE
To download “There Is No Business To Be Done On A Dead Planet” Power tab click button below
Please note that you must have Power Tab software installed on your
computer in order to view this file.
Suggest correction
Give kudos to tab author, rate the tab!
1 2 3 4 5
comments
report bad tab
1 comment total.
0 reply
patsyxcore 1,302 Nov 05, 2008 04:24 PM

Gtrs I, II
PM--| PM--| PM--| PM--|
S S E E S S E E S S E H. S S E
||------------------------|--------------------|
||o-----------------------|--------------------|
||------------------------|--------------------|
||------------------------|--------------------|
||o-0-0-0---0-0-0---0-0-0-|--------------0-0-0-|
||--0-0-0---0-0-0---0-0-0-|--------------0-0-0-|
|
| Gtr III
| E E E E E E E E E E E E E E E E
||------------------------|--------------------|
||o---------------7-------|------------7-------|
||--------7---------7h==8-|------7-------7h==8-|
||--5-----------5---------|-5--------5---------|
||o-----3---3-------------|----3---3-----------|
||------------------------|--------------------|


PM--| PM--| PM--| PM--|
Q S S E Q S S E E S S E E S S E Q
|---------------------|---------------------|
|---------------------|---------------------|
|---------------------|---------------------|
|---------------------|---------------------|
|-----0-0-0-----0-0-0-|---0-0-0---0-0-0-----|
|-----0-0-0-----0-0-0-|---0-0-0---0-0-0-----|
|
| E E E E E E E E E E E E E E E E
|---------------------|---------------------|
|-------------7-------|---------------7-----|
|-----7---------7h==8-|-------7---------7h8-|
|-5---------5---------|-5---------5---------|
|---3-----3-----------|---3-----3-----------|
|---------------------|---------------------|


PM--| PM----------| PM--| PM--|
S S E H S S E S S E E S S E E S S E
|---------------------|-----------------------|
|---------------------|-----------------------|
|---------------------|-----------------------|
|---------------------|-----------------------|
|-0-0-0---------0-0-0-|-0-0-0---0-0-0---0-0-0-|
|-0-0-0---------0-0-0-|-0-0-0---0-0-0---0-0-0-|
|
| E E E E E E E E E E E E E E E E
|---------------------|-----------------------|
|-------------6-------|---------------6-------|
|-------6-------6h==7-|-------6---------6h==7-|
|-4---------4---------|-4-----------4---------|
|-----2---2-----------|-----2---2-------------|
|---------------------|-----------------------|


1.
PM--|
Q S S E H W
|-------------------|------------------||
|-------------------|-----------------o||
|-------------------|------------------||
|-------------------|------------------||
|-----0-0-0---------|-----------------o||
|-----0-0-0---------|------------------||
|
| E E E E E E E E E E E E E E E E
|-------------------|------------------||
|-------------6-----|-----------6-----o||
|-----6---------6h7-|-----6-------6h7--||
|-4---------4-------|-4-------4--------||
|---2-----2---------|---2---2---------o||
|-------------------|------------------||


2.
Eb5 D5 Eb5
PM--| PM| PM|
Q S S E H E E Q E E Q
|-------------------|-----------------||
|-------------------|-----------------||
|-------------------|-----------------||
|-------------------|-----1-------1---||
|-----0-0-0---------|-0-0-1---0-0-1---||
|-----0-0-0---------|-0-0-1---0-0-1---||
|
| E E E E E E E E E E E E E E E E
|-------------------|-----------------||
|-------------6-----|-----------6-----||
|-----6---------6h7-|-----6-------6h7-||
|-4---------4-------|-4-------4-------||
|---2-----2---------|---2---2---------||
|-------------------|-----------------||


Don't really agree with that part^


But, otherwise it's perfect, 4 stars.

guest
You may want to rate the tab now too:
select rating