Oops, an error
Loading. Please wait.

We Hold These Truths tab

version 2
version 2

Whole song

Interactive

1,361 views 1 this week
1 commentread comment
1 2 3 4 5
x 3
add to favorites
×
Save as Personal and add changes to this tab that will be seen only by you. Learn more ›
×
You can save this tab as Personal to edit and correct it or add notes. All changes will be seen only by you. Learn more »
launch autoscroll
font size
0
reset
how to read this tab
guitar tuner
edit
Autoscroll
slow
fast
+/-
esc
set tempo
stop
Author
PM = PALM MUTE
/  = SLIDE UP
*  = SQUEEL

Drop b tuning

Intro Guitar II   I havent learned the arpegio yet
|-----------------------------------------------------------------------|
|-----------------------------------------------------------------------|
|-----------------------------------------------------------------------|
|----0---8----0--7---10--11------00--0000-0-----------------------------|
|----0---8----0--7---10--12------00--0000-0-----------------------------|
|----0---8----0--7---10--11------00--0000-0-----------------------------|
PM                               ..  .... .
Guitar I comes in on the very last note   here


Guitar I
|-----------------------------------------------------------------------|
|--------------------------6--------------------------------------------|
|----------------------------7------------------------------------------|
|--7--------7-------------7---7-----8-------8---------5--------5--------|
|----8-0-------8-0-----5-8-------------10-0-----10-0------7-0------7-0--|
|-----------------------------------------------------------------------|
         Guitar II comes in         here
|-----------------------------------------------------------------------|
|--------------------------6--------------------------------------------|
|----------------------------7------------------------------------------|
|--7--------7------------7----7-----8-------8----------------5-7-8------|
|----8-0-------8-0----5-8-------------10-0-----10-0----5-7-8------------|
|-----------------------------------------------------------------------|
                                                              (Repeat x2)

Both Guitars
|-----------------------------------------------------------------------|
|-----------------------------------------------------------------------|
|-----------------------------------------------------------------------|
|-------------------------------------------------8-7-5-7-5-------------|
|-5-------5--------5--------5----------8---------------------8-4--------|
|----8-0-----8-0------8-0------8-0--------12-0--------------------------|
                                                              (Repeat x2)

Both Guitars
|-----------------------------------------------------------------------|
|-----------------------------------------------------------------------|
|-----------------------------------------------------------------------|
|-----------------------------------------------------------------------|
|-5-------5-------7--------7---------8--------8---------8--------8------|
|----8-0-----8-0-----10-0-----10-0------12-0------12-0-----12-0-----12-0|

|-----------------------------------------------------------------------|
|-----------------------------------------------------------------------|
|---7-------7--------9--------9---------10-------10-------10-------10---|
|-8---0---8---0---10---0---10---0----12----0--12----0--12----0--12----0-|
|-----------------------------------------------------------------------|
|-----------------------------------------------------------------------|


Guitar I  Section 1
|-----------------------------------------------------------------------|
|-----------------------------------------------------------------------|
|-----------------------------------------------------------------------|
|----------------7--8-7--------7-------------5--------------------------|
|--8-7-5-3-5-7----0--------5-7---8-7-5---4-5---7-5-4--------------------|
|-----------------------------------------------------------------------|
PM . . . . . .    .                                           (Repeat x4)

Guitar II
|-----------------------------------------------------------------------|
|-----------------------------------------------------------------------|
|-----------------------------------------------------------------------|
|---000---000000----------000-------------------------------------------|
|---000---000000----------000-------------------------------------------|
|---000---000000--0-0-0---000-------------------------------------------|
PM  ...   ......          ...                     (Section 1   Repeat x4)

Both Guitars
|-----------------------------------------------------------------------|
|-----------------------------------------------------------------------|
|-----------------------------------------------------------------------|
|---000---000000----------000-------------------------------------------|
|---000---000000----------000-------------------------------------------|
|---000---000000--0-0-0---000-------------------------------------------|
PM  ...   ......          ...

Both Guitars
|-----------------------------------------------------------------------|
|-----------------------------------------------------------------------|
|-----------------------------------------------------------------------|
|------000000----------000----------------------------------------------|
|------000000----------000----------------------------------------------|
|------000000--0-0-0---000----------------------------------------------|
PM     ......          ...                                    (Repeat x2)

Both Guitars
|-------------------------------------------5---------------------5-----|
|-------------------------------------------6---------------------5-----|
|-------------------------------------------7---------------------7-----|
|------000000----------00---0000--0-0-0-0---7--0-0--0-0-0-0-------7-----|
|------000000----------00---0000--0-0-0-0---5--0-0--0-0-0-0-------5-----|
|------000000--0-0-0---00---0000--0-0-0-0------0-0--0-0-0-0-------------|
PM     ......          ..   ....  . . . .      . .  . . . .

Guitar I
|-----------------5-----------------5-----------------------------------|
|-----------------6-----------------5-----------------------------------|
|-----------------7-----------------7-----------------------------------|
|----000--0-000---7-----000-0-000---7------7-7/8---7-7/8----------------|
|----000--0-000---5-----000-0-000---5-----------------------------------|
|----000--0-000---------000-0-000---------------------------------------|
PM   ...  . ...         ... . ...


Guitar II
|-----------------5-----------------5-----------------------------------|
|-----------------6-----------------5-----------------------------------|
|-----------------7-----------------7-----------------------------------|
|----000--0-000---7-----000-0-000---7------000-0-000--------------------|
|----000--0-000---5-----000-0-000---5------000-0-000----8-8/10----------|
|----000--0-000---------000-0-000----------000-0-000--------------------|
PM   ...  . ...         ... . ...          ... . ...

Both Guitars
|-----------------------------------------------------------------------|
|-----------------------------------------------------------------------|
|-----------------------------------------------------------------------|
|---000-0-000-000-0-000-000---------------------------------------------|
|---000-0-000-000-0-000-000---------------------------------------------|
|---000-0-000-000-0-000-000---------------------------------------------|
PM  ... . ... ... . ... ...                    (Both Guitars Repeat x4)


Guitar I
|-----------------------------------------------------------------------|
|-----------------------------------------------------------------------|
|-----------------------------------------------------------------------|
|---000-0-000-000-0-000-000---------------------------------------------|
|---000-0-000-000-0-000-000---------------------------------------------|
|---000-0-000-000-0-000-000---------------------------------------------|
PM  ... . ... ... . ... ...                    (Guitar I Repeat x4)
Guitar I plays breakdown 4 times while guitar II is playing the riff under this sentence.


Guitar II
|-----------------------------------------------------------------------|
|-----------------------------------------------------------------------|
|-----------------------------------------------------------------------|
|-----------------------------------------------------------------------|
|-8p5------8p5--8p5--------8p5--8p5---------7p3------7p3---7p3----------|
|-----7-3------------7-3---------------5-2-------5-2-------------5-2----|
PM    . .            . .               . .       . .             . .

|-----------------------------------------------------------------------|
|-----------------------------------------------------------------------|
|-----------------------------------------------------------------------|
|-----------------------------------------------------------------------|
|--7p3--7p3-------10p7------10p7---10p7-------10p7---10p7---------------|
|-------------8-5-------8-5--------------8-5----------------------------|
PM            . .       . .              . .

|-----------------------------------------------------------------------|
|-----------------------------------------------------------------------|
|-----------------------------------------------------------------------|
|-----------------------------------------------------------------------|
|---------8p5-------8p5---7p3------7p3---7p3----------------------------|
|----7-3-------7-3-------------5-2--------------------------------------|
PM   . .       . .             . .                (Guitar II Repeat x2)


Both Guitars Harmonize (Guitar I)
|-----------------------------------------------------------------------|
|-----------------------------------------------------------------------|
|-----------------------------------------------------------------------|
|-----------------------------------------------------------------------|
|----12p8-------12p8---12p8--------12p8---12p8--------10p7------10p7----|
|---------10-7--------------10-7-----------------8-5-------8-5----------|
PM         . .               . .                 . .       . .

|-----------------------------------------------------------------------|
|-----------------------------------------------------------------------|
|-----------------------------------------------------------------------|
|-----------------------------------------------------------------------|
|---10p7-----10p7---10p7-------13p10--------13p10---13p10--------13p10--|
|--------8-5--------------12-8--------12-8-----------------12-8---------|
PM       . .               . .         . .                  . .


|-----------------------------------------------------------------------|
|-----------------------------------------------------------------------|
|-----------------------------------------------------------------------|
|-----------------------------------------------------------------------|
|--13p10-------12p8-------12p8--10p7--------10p7---10p7-----------------|
|---------10-7-------10-7--------------8-5------------------------------|
PM         . .        . .              . .      (Guitar I Repeat x2)


Guitar II (harmony)
|-----------------------------------------------------------------------|
|-----------------------------------------------------------------------|
|-----------------------------------------------------------------------|
|-----------------------------------------------------------------------|
|-8p5------8p5--8p5--------8p5--8p5---------7p3------7p3---7p3----------|
|-----7-3------------7-3---------------5-2-------5-2-------------5-2----|
PM    . .            . .               . .       . .             . .

|-----------------------------------------------------------------------|
|-----------------------------------------------------------------------|
|-----------------------------------------------------------------------|
|-----------------------------------------------------------------------|
|--7p3--7p3-------10p7------10p7---10p7-------10p7---10p7---------------|
|-------------8-5-------8-5--------------8-5----------------------------|
PM            . .       . .              . .

|-----------------------------------------------------------------------|
|-----------------------------------------------------------------------|
|-----------------------------------------------------------------------|
|-----------------------------------------------------------------------|
|---------8p5-------8p5---7p3------7p3---7p3----------------------------|
|----7-3-------7-3-------------5-2--------------------------------------|
PM   . .       . .             . .                (Guitar II Repeat x2)


Guitar I
|-----------------------------------------------------------------------|
|-----------------------------------------------------------------------|
|-----------------------------------------------------------------------|
|---00-000-0-000-000-0-000-000----000-0-000-000-0-000-------------------|
|---00-000-0-000-000-0-000-000----000-0-000-000-0-000-------------------|
|---00-000-0-000-000-0-000-000----000-0-000-000-0-000--*3---------------|
PM  .. ... . ... ... . ... ...    ... . ... ... . ...

Guitar II
|-----------------------------------------------------------------------|
|-----------------------------------------------------------------------|
|-----------------------------------------------------------------------|
|-----------------------------------------------------------------------|
|-----------------------------------------------------------------------|
|-------------------------------------------------------0-0-0-----------|
Pick slide on 2nd set of gallops and 3 open notes when guitar I squeels

Guitar I Section - 2
|-----------------------------------------------------------------------|
|-----------------------------------------------------------------------|
|-----------------------------------------------------------------------|
|---000-0-000-000-0-000-------------------------------------------------|
|---000-0-000-000-0-000-------------------------------------------------|
|---000-0-000-000-0-000----0--------------------------------------------|
PM  ... . ... ... . ...  Guitar I does the first open note and Guitar II leads the last 3

Guitar II
|-----------------------------------------------------------------------|
|-----------------------------------------------------------------------|
|-----------------------------------------------------------------------|
|---000-0-000-000-0-000-------------------------------------------------|
|---000-0-000-000-0-000-------------------------------------------------|
|---000-0-000-000-0-000----0-0-0-0--------------------------------------|
PM  ... . ... ... . ...

Both Guitars
|-----------------------------------------------------------------------|
|-----------------------------------------------------------------------|
|-----------------------------------------------------------------------|
|---000-0-000-000-0-000-------------------------------------------------|
|---000-0-000-000-0-000-------------------------------------------------|
|---000-0-000-000-0-000----0-0-0----------------------------------------|
PM  ... . ... ... . ... Both guitars hit 3 notes together (Section - 2 Repeat x4)


Guitar I
|-----------------------------------------------------------------------|
|-----------------------------------------------------------------------|
|-----------------------------------------------------------------------|
|---0-----------------------------------------000000-00-----------------|
|---0-----------------------------------------000000-00-----------------|
|---0-----------------------------------------000000-00-----------------|
PM                                            ...... ..
       Open note until snare drum comes in      here
        (while guitar II is playin the next riff)

Guitar II
|-----------------------------------------------------------------------|
|-----------------------------------------------------------------------|
|-----------------------------------------------------------------------|
|-----------------------------------------------------------------------|
|----88-77---10-10-88---12-12-10-10---13-13-12-12-----------------------|
|-----------------------------------------------------------------------|

|-----------------------------------------------------------------------|
|-----------------------------------------------------------------------|
|-----------------------------------------------------------------------|
|-----------------------------------------------------------------------|
|---13-12-10-8-10-8-7-8------15-13-12-10-12-10-8-10---------------------|
|-----------------------------------------------------------------------|
Speed Pick Each note 4 times

Both Guitars
|-----------------------------------------------------------------------|
|-----------------------------------------------------------------------|
|-----------------------------------------------------------------------|
|-----------------------------------------------------------------------|
|----88-77---10-10-88---12-12-10-10---13-13-12-12-----------------------|
|-----------------------------------------------------------------------|

|-----------------------------------------------------------------------|
|-----------------------------------------------------------------------|
|-----------------------------------------------------------------------|
|-------------------------------------------------------000000-00-------|
|---13-12-10-8-10-8-7-8------15-13-12-10-12-10-8-10-----000000-00-------|
|-------------------------------------------------------000000-00-------|
PM                                                      ...... ..
     Speed Pick Each note 4 times


Both Guitars
|-----------------------------------------------------------------------|
|--------------------------6--------------------------------------------|
|----------------------------7------------------------------------------|
|--7--------7-------------7---7-----8-------8---------5--------5--------|
|----8-0-------8-0-----5-8-------------10-0-----10-0------7-0------7-0--|
|-----------------------------------------------------------------------|
         Guitar II comes in         here
|-----------------------------------------------------------------------|
|--------------------------6--------------------------------------------|
|----------------------------7------------------------------------------|
|--7--------7------------7----7-----8-------8----------------5-7-8------|
|----8-0-------8-0----5-8-------------10-0-----10-0----5-7-8------------|
|-----------------------------------------------------------------------|
                                                              (Repeat x2)

Both Guitars
|-----------------------------------------------------------------------|
|-----------------------------------------------------------------------|
|-----------------------------------------------------------------------|
|-------------------------------------------------8-7-5-7-5-------------|
|-5-------5--------5--------5----------8---------------------8-4--------|
|----8-0-----8-0------8-0------8-0--------12-0--------------------------|
                                                              (Repeat x2)

Both Guitars
|-----------------------------------------------------------------------|
|-----------------------------------------------------------------------|
|-----------------------------------------------------------------------|
|-----------------------------------------------------------------------|
|-5-------5-------7--------7---------8--------8---------8--------8------|
|----8-0-----8-0-----10-0-----10-0------12-0------12-0-----12-0-----12-0|

|-----------------------------------------------------------------------|
|-----------------------------------------------------------------------|
|---7-------7--------9--------9---------10-------10-------10-------10---|
|-8---0---8---0---10---0---10---0----12----0--12----0--12----0--12----0-|
|-----------------------------------------------------------------------|
|-----------------------------------------------------------------------|



Guitar I Section - 3
|-----------------------------------------------------------------------|
|-----------------------------------------------------------------------|
|-----------------------------------------------------------------------|
|----------------7--8-7--------7-------------5--------------------------|
|--8-7-5-3-5-7----0--------5-7---8-7-5---4-5---7-5-4--------------------|
|-----------------------------------------------------------------------|
PM . . . . . .    .

Guitar II
|-----------------------------------------------------------------------|
|-----------------------------------------------------------------------|
|-----------------------------------------------------------------------|
|---000---000000----------000-------------------------------------------|
|---000---000000----------000-------------------------------------------|
|---000---000000--0-0-0---000-------------------------------------------|
PM  ...   ......          ...                     (Section 3   Repeat x4)


and thats the whole song....soon as my guitarist teaches me the arpegio in the
intro i will post it up. enjoy

            
            
Suggest correction
Creating personal tab
Creating personal tab
You can edit any tab online and save it as your Personal.

You can edit, replace or remove any tab part or add personal notes – all changes will be seen only by you.

Personal tabs can be accessed anytime from any device, even offline.
Learn more »
Give kudos to tab author, rate the tab!
1 2 3 4 5
comments
print report bad tab
1 comment total.
+1 reply
FlameIbrah 103 Dec 10, 2007 02:03 PM

uhhhh.... not totally accurate. it hits around it but not really there.

guest
You may want to rate the tab now too:
select rating
Wanna post a correction for this tab? Suggest correction