Oops, an error
Loading. Please wait.

Empty Inside bass

version 1
version 1

Whole song

3,360 views 1 this week
1 commentread comment
1 2 3 4 5
1 last vote to show rating
add to favorites
×
Save as Personal and add changes to this tab that will be seen only by you. Learn more ›
×
You can save this tab as Personal to edit and correct it or add notes. All changes will be seen only by you. Learn more »
launch autoscroll
font size
0
reset
guitar tuner
edit
Autoscroll
slow
fast
+/-
esc
set tempo
stop
All That Remains
Empty Inside


/= seperates two digit numbers

Intro
g--------------------------------------| x4
d--------------------------------------|
a-5---5-578----0-873----3-10/87-7-7873-|
d---00------00-------00----------------|


verse
g---------------------------------------------------------------|x2
d---------------------------------------------------------------|
a---5----5-5-----873-8---8-8----10/87-5----5-5----873-----------|
d-----00------00-------00----00---------00-----00-----3-xx-3-xx-|


chorus(Not sure about the strum patern)
g------------------------------------------------|
d------------------------------------------------|
a---55555555778888888/10/8777777----5555---------|
d-------------------------------8888-------------|


g------------------------------------------------|
d-------------------5555555578877----------------|
a-555555557788888878-----------------------------|
d------------------------------------------------|
verse x2
chorusx2

solo
g-------------|x4
d-------------|
a--5---8--10--|
d-------------|


g-------------|x4
d--7---10-12--|
a--5---8--10--|
d-------------|
chorus x2
Intro  x2
verse  x2

End (Not sure about strum pattern)
g-7777777-x14
d-0000000-
a-5555555-
d-0000000-
(Let not ring on last riff)

            
            
Suggest correction
Creating personal tab
Creating personal tab
You can edit any tab online and save it as your Personal.

You can edit, replace or remove any tab part or add personal notes – all changes will be seen only by you.

Personal tabs can be accessed anytime from any device, even offline.
Learn more »
Give kudos to tab author, rate the tab!
1 2 3 4 5
comments
print report bad tab
1 comment total.
0 reply
TkBass326 30 Apr 20, 2009 03:47 PM

good tab, but here's a much easier way to play the intro

g--------------------------------------|
d-0---0-023----3-32-------532-2-23-----|
a------------------3----3---------53---|
d---00------00-------00----------------|

guest
You may want to rate the tab now too:
select rating
Wanna post a correction for this tab? Suggest correction