Oops, an error
Loading. Please wait.
We have an official Empty Inside tab made by UG professional guitarists. Check out the tab »
×
19,487 views 6 this week
7 commentsread comments
1 2 3 4 5
x 15
add to favorites
guitar tuner
Autoscroll
slow
fast
+/-
esc
set tempo
stop
"Empty Inside"
demo version
Play now

or get full version for Free

×
Get full version now!
Learn and play this song
in Tab Pro
Try for free

or get $10 off Welcome Bonus

Get welcome bonus
Get access to Tab Pro version of “Empty Inside”!
Tab Pro is a premium guitar tab service, available on PC, Mac, iOS and Android
TRY FOR FREE
To download “Empty Inside” Guitar Pro tab click button below
Please note that you must have Guitar Pro software installed on your
computer in order to view this file.
Suggest correction
comments
report bad tab
7 comments total. Showing first comments.
0 reply
smokingowns 10 Dec 18, 2009 11:10 AM

Perfect tab! 100%!

0 reply
forbiddendaysm 10 Dec 21, 2009 10:45 PM

awesome tab thx

+2 reply
m0op 41 Dec 31, 2009 03:30 AM

This is good but it's not worth 5*
The main riff is wrong, that's easily hearable

PM PM PM    PM              PM PM PM    PM         
E E E E E E E E E E E E E E E E
D||--------------------------|----------------------------|
A||--------------------------|----------------------------|
F||--------------------------|----------------------------|
C||--------------------------|----------------------------|
G||--7-----------7-----7--9--|--10-----------------10--9--|
D||-----0--0--0-----0--------|------0--0--0--8--0---------|

PM PM PM PM PM PM
E E E E E E E E E E E E E E E E
-----------------------------|----------------------------|
-----------------------------|----------------------------|
-----------------------------|----------------------------|
----------------------7------|----------------------------|
-------------------------10--|--9-----9-----9--10--7------|
--10--0--0--0--10--0---------|-----0-----0------------10--|

Is right

guest
You may want to rate the tab now too:
select rating