Oops, an error
Loading. Please wait.

This Darkened Heart bass

version 2
version 2
1,033 views 1 this week
1 commentread comment
1 2 3 4 5
2 more votes to show rating
add to favorites
×
Save as Personal and add changes to this tab that will be seen only by you. Learn more ›
×
You can save this tab as Personal to edit and correct it or add notes. All changes will be seen only by you. Learn more »
launch autoscroll
font size
0
reset
guitar tuner
edit
Autoscroll
slow
fast
+/-
esc
set tempo
stop
this is pretty much the same as the other tab but i changed the order and 
some notes to make it easier to play and read...enjoy


Intro riff   x2
G[------------------------------------------------------------------]
D[-------3-2-------------3-2----------------------------------------] 
A[--5-4-------4h5---5-4-------4h5---3-2-0-2-3-2-----3-2-0-2-3-------]
D[-----------------------------------------------3------------1h3h1-]


Verse riff        
G[--------------------------------------------------------]
D[------------------------1-0------------------0-1--------]
A[--------5-4-1-0-----0-1---------5-4-1---5-3-------3—3h5-] 
D[--0-----------------------------------------------------]


Chorus 
G[--------------------------]
D[--------------------------]
A[--------------------------]         x3
D[--0-----3-----5-----7---3-]

Intro riff   x2
G[------------------------------------------------------------------]
D[-------3-2-------------3-2----------------------------------------] 
A[--5-4-------4h5---5-4-------4h5---3-2-0-2-3-2-----3-2-0-2-3-------]
D[-----------------------------------------------3------------1h3h1-]

Verse riff        
G[--------------------------------------------------------]
D[------------------------1-0------------------0-1--------]
A[--------5-4-1-0-----0-1---------5-4-1---5-3-------3—3h5-] 
D[--0-----------------------------------------------------]

Chorus 
G[--------------------------]
D[--------------------------]
A[--------------------------]         x4
D[--0-----3-----5-----7---3-]

Bridge riff 1
G[--------------------------------------------------------------------]
D[------------------------------------------------------------------1-]
A[---------------------------5--4-1----------------------------0--1---] 
D[--0-0-0-0---0-0-0-0-0-0-0-----------0-0-0-0---0-0-0-0-0-0-0---------]


Bridge riff 2
G[-----------]
D[---0~------]
A[-----------]
D[-----------]


Outro riff 1
G[---------------------------------------------------------]
D[---------------------------------------------------------]
A[---------------------------------------------------------]
D[--0000000-0000000000000---0000000-0000000000000-44-33-11-]

Outro riff 2
G[---------------------------------------------------------]
D[---------------------------------------------------------]
A[---------------------------------------------------------]
D[--0000000-0000000000000---0000000-0000000000000----------]

            
            
Suggest correction
Creating personal tab
Creating personal tab
You can edit any tab online and save it as your Personal.

You can edit, replace or remove any tab part or add personal notes – all changes will be seen only by you.

Personal tabs can be accessed anytime from any device, even offline.
Learn more »
Give kudos to tab author, rate the tab!
1 2 3 4 5
comments
print report bad tab
1 comment total.
-1 reply
MetallicA_1551 50 Jul 23, 2008 12:46 PM

nice tab.. for a giant noob.. noob.. noob..

guest
You may want to rate the tab now too:
select rating
Wanna post a correction for this tab? Suggest correction