Oops, an error
Loading. Please wait.

Weak Willed bass

version 1
version 1

Whole song

Interactive

3,020 views 1 this week
no commentswrite comment
1 2 3 4 5
1 last vote to show rating
add to favorites
×
Save as Personal and add changes to this tab that will be seen only by you. Learn more ›
×
You can save this tab as Personal to edit and correct it or add notes. All changes will be seen only by you. Learn more »
launch autoscroll
font size
0
reset
guitar tuner
edit
Autoscroll
slow
fast
+/-
esc
set tempo
stop
                             The Weak Willed                                 


                             All That Remains


             Q    Q    Q    Q       Q    Q    Q    Q       Q    Q    Q    Q     
G||-------|----------------------|----------------------|----------------------|
D||-------|----------------------|------------7---------|----------------------|
A||-------|--5----8----7----5----|--8----7---------7----|--4----8----7----4----|
D||-------|----------------------|----------------------|----------------------|


  Q    Q    Q    Q       Q    Q    Q    Q       Q    Q    Q    Q     
----------------------|----------------------|----------------------|
------------8---------|----------------------|------------7---------|
--8----7---------7----|--5----8----7----5----|--8----7---------7----|
----------------------|----------------------|----------------------|


  Q    Q    Q    Q       Q    Q    Q    Q       Q    Q    Q    Q     
----------------------|----------------------|----------------------|
----------------------|----------------------|----------------------|
--5----4--------------|-------8----4----7----|--5----8----7----5----|
------------8----6----|--7-------------------|----------------------|


  Q    Q    Q    Q       Q    Q    Q    Q       Q    Q    Q    Q     
----------------------|----------------------|----------------------|
------------7---------|----------------------|------------8---------|
--8----7---------7----|--4----8----7----4----|--8----7---------7----|
----------------------|----------------------|----------------------|


  Q    Q    Q    Q       Q    Q    Q    Q       Q    Q    Q    Q     
----------------------|----------------------|----------------------|
----------------------|------------7---------|----------------------|
--5----8----7----5----|--8----7---------7----|--5----4--------------|
----------------------|----------------------|------------8----6----|


  Q    Q    Q    Q                                     
----------------------|-------|-------|-------|-------|
----------------------|-------|-------|-------|-------|
-------8----4----7----|-------|-------|-------|-------|
--7-------------------|-------|-------|-------|-------|


  E   E   E   E  E  E  E  E     E  E  E   E  S S E  S S E   
-----------------------------|-----------------------------|
-----------------------------|-----------------------------|
-----------------------------|--------4h--5----------------|
--7h--8p--7h--8--0--0--0--0--|--0--0---------0-0-0--0-0-0--|


                          |----3----|    |----3----|     
  H        S S E  Q       Q    Q    Q    Q    Q    Q     
-----------------------|--------------------------------|
-----------------------|--------------------------------|
-----------------------|--------------------------------|
--6--------0-0-0--6----|--0----0----1----3----1----0----|


  E   E   E   E  E  E  E  E     E  E  E   E  S S E  S S E   
-----------------------------|-----------------------------|
-----------------------------|-----------------------------|
-----------------------------|--------4h--5----------------|
--7h--8p--7h--8--0--0--0--0--|--0--0---------0-0-0--0-0-0--|


                          |----3----|    |----3----|                            
  H        S S E  Q       Q    Q    Q    Q    Q    Q       Q    Q    Q    Q     
-----------------------|--------------------------------|----------------------|
-----------------------|--------------------------------|----------------------|
-----------------------|--------------------------------|--5----8----7----5----|
--6--------0-0-0--6----|--0----0----1----3----1----0----|----------------------|


  Q    Q    Q    Q       E   E   E   E  E  E  E  E   
----------------------|-----------------------------|
------------7---------|-----------------------------|
--8----7---------7----|-----------------------------|
----------------------|--7h--8p--7h--8--0--0--0--0--|


  E  E  E   E  S S E  S S E     H        S S E  Q     
-----------------------------|-----------------------|
-----------------------------|-----------------------|
--------4h--5----------------|-----------------------|
--0--0---------0-0-0--0-0-0--|--6--------0-0-0--6----|


  |----3----|    |----3----|                                   
  Q    Q    Q    Q    Q    Q       E   E   E   E  E  E  E  E   
--------------------------------|-----------------------------|
--------------------------------|-----------------------------|
--------------------------------|-----------------------------|
--0----0----1----3----1----0----|--7h--8p--7h--8--0--0--0--0--|


  E  E  E   E  S S E  S S E     H        S S E  Q     
-----------------------------|-----------------------|
-----------------------------|-----------------------|
--------4h--5----------------|-----------------------|
--0--0---------0-0-0--0-0-0--|--6--------0-0-0--6----|


  |----3----|                                             
  Q    Q    Q    H            E   E   E   E  E  E  E  E   
---------------------------|-----------------------------|
---------------------------|-----------------------------|
---------------------------|-----------------------------|
--0----0----1----3\--------|--7h--8p--7h--8--0--0--0--0--|


  E  E  E   E  S S E  S S E     H        S S E  Q     
-----------------------------|-----------------------|
-----------------------------|-----------------------|
--------4h--5----------------|-----------------------|
--0--0---------0-0-0--0-0-0--|--6--------0-0-0--6----|


  |----3----|    |----3----|                                   
  Q    Q    Q    Q    Q    Q       E   E   E   E  E  E  E  E   
--------------------------------|-----------------------------|
--------------------------------|-----------------------------|
--------------------------------|-----------------------------|
--0----0----1----3----1----0----|--7h--8p--7h--8--0--0--0--0--|


  E  E  E   E  S S E  S S E     H        S S E  Q     
-----------------------------|-----------------------|
-----------------------------|-----------------------|
--------4h--5----------------|-----------------------|
--0--0---------0-0-0--0-0-0--|--6--------0-0-0--6----|


  |----3----|    |----3----|                                                   
  Q    Q    Q    Q    Q    Q       Q    Q    Q    Q       Q    Q    Q    Q     
--------------------------------|----------------------|----------------------|
--------------------------------|----------------------|------------7---------|
--------------------------------|--5----8----7----5----|--8----7---------7----|
--0----0----1----3----1----0----|----------------------|----------------------|


  Q    Q    Q    Q       Q    Q    Q    Q       Q    Q    Q    Q     
----------------------|----------------------|----------------------|
----------------------|------------8---------|----------------------|
--4----8----7----4----|--8----7---------7----|--5----8----7----5----|
----------------------|----------------------|----------------------|


  Q    Q    Q    Q       Q    Q    Q    Q       Q    Q    Q    Q     
----------------------|----------------------|----------------------|
------------7---------|----------------------|----------------------|
--8----7---------7----|--5----4--------------|-------8----4----7----|
----------------------|------------8----6----|--7-------------------|


  Q    Q    Q    Q       Q    Q    Q    Q       Q    Q    Q    Q     
----------------------|----------------------|----------------------|
----------------------|------------7---------|----------------------|
--5----8----7----5----|--8----7---------7----|--4----8----7----4----|
----------------------|----------------------|----------------------|


  Q    Q    Q    Q       Q    Q    Q    Q       Q    Q    Q    Q     
----------------------|----------------------|----------------------|
------------8---------|----------------------|------------7---------|
--8----7---------7----|--5----8----7----5----|--8----7---------7----|
----------------------|----------------------|----------------------|


  Q    Q    Q    Q       Q    Q    Q    Q       Q    Q    Q    Q     
----------------------|----------------------|----------------------|
----------------------|----------------------|----------------------|
--5----4--------------|-------8----4----7----|----------------------|
------------8----6----|--7-------------------|--7----8----7----0----|


  Q    Q    H           Q    Q    Q    Q       Q    Q    Q    Q     
---------------------|----------------------|----------------------|
---------------------|----------------------|----------------------|
------------4--------|--5-------------------|----------------------|
--0----0-------------|-------0----0----0----|--7----8----7----0----|


  Q    Q    Q    Q       Q    Q    Q    Q       Q    Q    Q    Q     
----------------------|----------------------|----------------------|
----------------------|----------------------|----------------------|
----------------------|----------------------|----------------------|
--6----7----6----0----|--0----6----0----6----|--0----0----6----0----|


  Q    Q    Q    Q       Q    Q    Q    Q       Q    Q    H         
----------------------|----------------------|---------------------|
----------------------|----------------------|---------------------|
----------------------|----------------------|------------4--------|
--0----6----0----0----|--7----8----7----0----|--0----0-------------|


  Q    Q    Q    Q       Q    Q    Q    Q       Q    Q    Q    Q     
----------------------|----------------------|----------------------|
----------------------|----------------------|----------------------|
--5-------------------|----------------------|----------------------|
-------0----0----0----|--7----8----7----0----|--6----7----6----0----|


  Q    Q    Q    Q       Q    Q    Q    Q       Q    Q    Q    Q     
----------------------|----------------------|----------------------|
----------------------|----------------------|----------------------|
----------------------|----------------------|----------------------|
--0----6----0----6----|--0----0----6----0----|--0----6----0----0----|


  W                   H        E  E  Q       W                 
-------------------|----------------------|-------------------|
-------------------|----------------------|-------------------|
-------------------|----------------------|-------------------|
--0----------------|--L--------0--0-------|--0----------------|


  H        E  E  Q       W                   W                 
----------------------|-------------------|-------------------|
----------------------|-------------------|-------------------|
----------------------|-------------------|-------------------|
--L--------0--0-------|--6----------------|--L----------------|


  E  E  H.              Q    Q     H            W                 
---------------------|-----------------------|-------------------|
---------------------|-----------------------|-------------------|
---------------------|-----------------------|-------------------|
--0--0---------------|-------6----12\--------|--0----------------|


  H        E  E  Q       W                   H        E  E  Q     
----------------------|-------------------|----------------------|
----------------------|-------------------|----------------------|
----------------------|-------------------|----------------------|
--L--------0--0-------|--0----------------|--L--------0--0-------|


  W                   H        E  E  Q       H         H         
-------------------|----------------------|---------------------|
-------------------|----------------------|---------------------|
-------------------|----------------------|---------------------|
--6----------------|--L--------0--0-------|-----------/1--------|


  H        H           E  E  Q    H           W                 
--------------------|----------------------|-------------------|
--------------------|----------------------|-------------------|
--------------------|----------------------|-------------------|
--4--------3--------|--0--0-------0--------|--L----------------|


  E  E  Q    H           W                   E  E  Q    H         
----------------------|-------------------|----------------------|
----------------------|-------------------|----------------------|
----------------------|-------------------|----------------------|
--0--0-------6--------|--L----------------|--0--0-------0--------|


  W                   E  E  Q    H           W                 
-------------------|----------------------|-------------------|
-------------------|----------------------|-------------------|
-------------------|----------------------|-------------------|
--L----------------|--0--0-------6--------|--L----------------|


  E  E  Q    H           W                   E  E  Q    H         
----------------------|-------------------|----------------------|
----------------------|-------------------|----------------------|
----------------------|-------------------|----------------------|
--0--0-------0--------|--L----------------|--0--0-------6--------|


  W                   E  E  Q    H           W                 
-------------------|----------------------|-------------------|
-------------------|----------------------|-------------------|
-------------------|----------------------|-------------------|
--L----------------|--0--0-------0--------|--L----------------|


  E  E  Q    H           W                   E  E  Q    E  E  Q     
----------------------|-------------------|------------------------|
----------------------|-------------------|------------------------|
----------------------|-------------------|------------------------|
--0--0-------6--------|--L----------------|--0--0-------0--0-------|


  E   E   E   E  E  E  E  E     E  E  E   E  S S E  S S E   
-----------------------------|-----------------------------|
-----------------------------|-----------------------------|
-----------------------------|--------4h--5----------------|
--7h--8p--7h--8--0--0--0--0--|--0--0---------0-0-0--0-0-0--|


                          |----3----|    |----3----|     
  H        S S E  Q       Q    Q    Q    Q    Q    Q     
-----------------------|--------------------------------|
-----------------------|--------------------------------|
-----------------------|--------------------------------|
--6--------0-0-0--6----|--0----0----1----3----1----0----|


  E   E   E   E  E  E  E  E     E  E  E   E  S S E  S S E   
-----------------------------|-----------------------------|
-----------------------------|-----------------------------|
-----------------------------|--------4h--5----------------|
--7h--8p--7h--8--0--0--0--0--|--0--0---------0-0-0--0-0-0--|


                          |----3----|    |----3----|     
  H        S S E  Q       Q    Q    Q    Q    Q    Q     
-----------------------|--------------------------------|
-----------------------|--------------------------------|
-----------------------|--------------------------------|
--6--------0-0-0--6----|--0----0----1----3----1----0----|


  E   E   E   E  E  E  E  E     E  E  E   E  S S E  S S E   
-----------------------------|-----------------------------|
-----------------------------|-----------------------------|
-----------------------------|--------4h--5----------------|
--7h--8p--7h--8--0--0--0--0--|--0--0---------0-0-0--0-0-0--|


                          |----3----|    |----3----|     
  H        S S E  Q       Q    Q    Q    Q    Q    Q     
-----------------------|--------------------------------|
-----------------------|--------------------------------|
-----------------------|--------------------------------|
--6--------0-0-0--6----|--0----0----1----3----1----0----|


  E   E   E   E  E  E  E  E     E  E  E   E  S S E  S S E   
-----------------------------|-----------------------------|
-----------------------------|-----------------------------|
-----------------------------|--------4h--5----------------|
--7h--8p--7h--8--0--0--0--0--|--0--0---------0-0-0--0-0-0--|


                          |----3----|    |----3----|                         
  H        S S E  Q       Q    Q    Q    Q    Q    Q       W                 
-----------------------|--------------------------------|-------------------|
-----------------------|--------------------------------|-------------------|
-----------------------|--------------------------------|-------------------|
--6--------0-0-0--6----|--0----0----1----3----1----0----|--1----------------|


  |----3----|    |----3----|                                                  
  Q    Q    Q    Q    Q    Q       W                   E  E  Q    E  E  Q     
--------------------------------|-------------------|------------------------|
--------------------------------|-------------------|------------------------|
--------------------------------|-------------------|------------------------|
--0----0----1----3----1----0----|--7----------------|--0--0-------0--0-------|


  Q    Q    Q    Q       Q    Q    Q    Q       Q    Q    Q    Q     
----------------------|----------------------|----------------------|
----------------------|------------7---------|----------------------|
--5----8----7----5----|--8----7---------7----|--4----8----7----4----|
----------------------|----------------------|----------------------|


  Q    Q    Q    Q       Q    Q    Q    Q       Q    Q    Q    Q     
----------------------|----------------------|----------------------|
------------8---------|----------------------|------------7---------|
--8----7---------7----|--5----8----7----5----|--8----7---------7----|
----------------------|----------------------|----------------------|


  Q    Q    Q    Q       Q    Q    Q    Q       Q    Q    Q    Q     
----------------------|----------------------|----------------------|
----------------------|----------------------|----------------------|
--5----4--------------|-------8----4----7----|--5----8----7----5----|
------------8----6----|--7-------------------|----------------------|


  Q    Q    Q    Q       Q    Q    Q    Q       Q    Q    Q    Q     
----------------------|----------------------|----------------------|
------------7---------|----------------------|------------8---------|
--8----7---------7----|--4----8----7----4----|--8----7---------7----|
----------------------|----------------------|----------------------|


  Q    Q    Q    Q       Q    Q    Q    Q       Q    Q    Q    Q     
----------------------|----------------------|----------------------|
----------------------|------------7---------|----------------------|
--5----8----7----5----|--8----7---------7----|--5----4--------------|
----------------------|----------------------|------------8----6----|


  Q    Q    Q    Q       W                   H        Q    Q     
----------------------|-------------------|---------------------|
----------------------|-------------------|---------------------|
-------8----4----7----|-------------------|---------------------|
--7-------------------|--0----------------|--L--------0----7----|


  W                   W                   W                 
-------------------|-------------------|-------------------|
-------------------|-------------------|-------------------|
-------------------|-------------------|-------------------|
--L----------------|--L----------------|--5----------------|


  H        Q    Q       H        Q    Q       W                 
---------------------|---------------------|-------------------|
---------------------|---------------------|-------------------|
---------------------|---------------------|-------------------|
--L--------5----0----|--L--------0----2----|--L----------------|


  W                   H        Q    Q       W                 
-------------------|---------------------|-------------------|
-------------------|---------------------|-------------------|
-------------------|---------------------|-------------------|
--0----------------|--L--------0----7----|--L----------------|


  W                   W                   H        Q    Q     
-------------------|-------------------|---------------------|
-------------------|-------------------|---------------------|
-------------------|-------------------|---------------------|
--L----------------|--5----------------|--L--------5----0----|


  H        Q    Q       W                   W                 
---------------------|-------------------|-------------------|
---------------------|-------------------|-------------------|
---------------------|-------------------|-------------------|
--L--------0----2----|--L----------------|--0----------------|


  H        Q    Q       W                   W                 
---------------------|-------------------|-------------------|
---------------------|-------------------|-------------------|
---------------------|-------------------|-------------------|
--L--------0----7----|--L----------------|--L----------------|


  W                   H        Q    Q       H        Q    Q     
-------------------|---------------------|---------------------|
-------------------|---------------------|---------------------|
-------------------|---------------------|---------------------|
--5----------------|--L--------5----0----|--L--------0----2----|


  W                   Q     Q    Q    Q       Q    H        Q     
-------------------|-----------------------|---------------------|
-------------------|-----------------------|---------------------|
-------------------|--8----12----8----7----|--L----5--------4----|
--L----------------|-----------------------|---------------------|


  W                   W                    H.           Q     
-------------------|-------------------|---------------------|
-------------------|-------------------|---------------------|
--L----------------|--L----------------|--10------------8----|
-------------------|-------------------|---------------------|


  H        Q    E  E     W                   W                 
----------------------|-------------------|-------------------|
----------------------|--8----------------|--7----------------|
--L--------7----7--7--|-------------------|-------------------|
----------------------|-------------------|-------------------|


  Q     Q    Q    Q       Q    H        Q       W                 
-----------------------|---------------------|-------------------|
-----------------------|---------------------|-------------------|
--8----12----8----7----|--L----5--------4----|--L----------------|
-----------------------|---------------------|-------------------|


  W                    H.           Q       H        Q    E  E   
-------------------|---------------------|----------------------|
-------------------|---------------------|----------------------|
--L----------------|--10------------8----|--L--------7----7--7--|
-------------------|---------------------|----------------------|


  W                   W                   Q     Q    Q    Q     
-------------------|-------------------|-----------------------|
--8----------------|--7----------------|-----------------------|
-------------------|-------------------|--8----12----8----7----|
-------------------|-------------------|-----------------------|


  Q    H        Q       W                   W                 
---------------------|-------------------|-------------------|
---------------------|-------------------|-------------------|
--L----5--------4----|--L----------------|--L----------------|
---------------------|-------------------|-------------------|


   H.           Q       H        Q    E  E     W                 
---------------------|----------------------|-------------------|
---------------------|----------------------|--8----------------|
--10------------8----|--L--------7----7--7--|-------------------|
---------------------|----------------------|-------------------|


  W                   Q     Q    Q    Q       Q    H        Q     
-------------------|-----------------------|---------------------|
--7----------------|-----------------------|---------------------|
-------------------|--8----12----8----7----|--L----5--------4----|
-------------------|-----------------------|---------------------|


  W                   W                    H.           Q     
-------------------|-------------------|---------------------|
-------------------|-------------------|---------------------|
--L----------------|--L----------------|--10------------8----|
-------------------|-------------------|---------------------|


  H        Q    E  E     W                   W                 
----------------------|-------------------|-------------------|
----------------------|--8----------------|--7----------------|
--L--------7----7--7--|-------------------|-------------------|
----------------------|-------------------|-------------------|


  W                   W                   W                 
-------------------|-------------------|-------------------|
-------------------|-------------------|-------------------|
--8----------------|--L----------------|--L----------------|
-------------------|-------------------|-------------------|


  W                  
-------------------||
-------------------||
--L----------------||
-------------------||




Duration Legend
---------------
W - whole
H - half
Q - quarter
E - 8th
S - 16th
T - 32nd
X - 64th
. - note dotted
|-n-|  - n-tuplets


Tablature Legend
----------------
L - tied note
x - dead note
g - grace note
(n) - ghost note
> - accentuded note
NH - natural harmonic
AH - artificial harmonic
TH - tapped harmonic
SH - semi harmonic
PH - pitch harmonic
h - hammer on
p - pull off
b - bend
br - bendRelease
pb - preBend
pbr - preBendRelease
brb - bendReleaseBend
\n/ - tremolo bar dip
\n - tremolo bar dive
-/n - tremolo bar Release up
/n\ - tremolo bar inverted dip
/n - tremolo bar return
-\n - tremolo bar Release down
S - shift slide
s - legato slide
/ -  slide into from below or out of upwards
\ -  slide into from above or out of downwards
~ - vibrato
W - wide vibrato
tr - trill
TP - tremolo picking
T - tapping
S - slap
P - pop
< - fade in
^ - brush up
v - brush down

            
            
Suggest correction
Creating personal tab
Creating personal tab
You can edit any tab online and save it as your Personal.

You can edit, replace or remove any tab part or add personal notes – all changes will be seen only by you.

Personal tabs can be accessed anytime from any device, even offline.
Learn more »
Give kudos to tab author, rate the tab!
1 2 3 4 5
comments
print report bad tab
guest
You may want to rate the tab now too:
select rating
Wanna post a correction for this tab? Suggest correction