Oops, an error
Loading. Please wait.

Whispers I Hear You bass

version 1
version 1

Whole song

Interactive

3,384 views 1 this week
1 commentread comment
1 2 3 4 5
2 more votes to show rating
add to favorites
×
Save as Personal and add changes to this tab that will be seen only by you. Learn more ›
×
You can save this tab as Personal to edit and correct it or add notes. All changes will be seen only by you. Learn more »
launch autoscroll
font size
0
reset
guitar tuner
backing track
0:00
0:00
edit
Autoscroll
slow
fast
+/-
esc
set tempo
stop
Whispers I hear you by All That Remains Tabbed by Armando Yambao
This sounded right for me hope it works for you


Intro (guitars only)


Verse main riff (play along guitars)

G-------------------------------------------------------------------|
D-------------------------------------------------------------------|x2
A----5-7-8-7-5------10-10p8--8-8p7---5-7-8-7-5--10-10p8p0-8-8p7p0-3-|
D--00-0-0-0-0-----00--0----00-0----00-0-0-0-0-----0--------0--------|

Then

G----------------------------------------------------------|
D----------------------------------------------------------|
A----5-7-8-7-5--------------5-7-8-7-5--10-10p8p0-8-8p7p0-3-|x2
D--00-0-0-0-0---000--000--00-0-0-0-0-----0--------0--------|

Chorus

G--------------------------------------------------------|
D--------------------------------------------------------|
A---------------8—8-8-8-8-----7--7-7-7-7---------3-3-3-3-|x4
D-8—8-8-8-8----------------------------------------------|

Then

G----------------------------------------------------------|
D----------------------------------------------------------|
A----5-7-8-7-5--------------5-7-8-7-5--10-10p8p0-8-8p7p0-3-|x2
D--00-0-0-0-0---000--000--00-0-0-0-0-----0--------0--------|


Main riff

G-------------------------------------------------------------------|
D-------------------------------------------------------------------|
A----5-7-8-7-5------10-10p8--8-8p7---5-7-8-7-5--10-10p8p0-8-8p7p0-3-|x2
D--00-0-0-0-0-----00--0----00-0----00-0-0-0-0-----0--------0--------|


Chorus

G--------------------------------------------------------|
D--------------------------------------------------------|
A---------------8—8-8-8-8-----7--7-7-7-7---------3-3-3-3-|x4
D-8—8-8-8-8----------------------------------------------|

Break Down

G-----------------------------------------------------|
D-----------------------------------------------------|x2
A-------------------------------------------8-7-5-----|
D--8----88-8---0-0-0---0-0-0--8----88-8---00-0-0------|

Going into solo

G------------------------------|
D------------------------------|
A-------------8-7-5-10-8-7-----|x8
D-8--8-8-8h10------------------|

Then

G-----------------------------------------------------|x3
D-----------------------------------------------------|
A-----------------------------------------------------|
D--8----88-8---0-0-0---0-0-0--------------------------|

Then

G-----------------------------------------------------|  once
D-----------------------------------------------------|
A-------------------------------------------8-7-5-----|
D--8----88-8---0-0-0---0-0-0--8----88-8---00-0-0------|

Back to main riff

G-------------------------------------------------------------------|
D-------------------------------------------------------------------|x4
A----5-7-8-7-5------10-10p8--8-8p7---5-7-8-7-5--10-10p8p0-8-8p7p0-3-|
D--00-0-0-0-0-----00--0----00-0----00-0-0-0-0-----0--------0--------|


Chorus

G--------------------------------------------------------|
D--------------------------------------------------------|
A---------------8—8-8-8-8-----7--7-7-7-7---------3-3-3-3-|x6
D-8—8-8-8-8----------------------------------------------|

            
            
Suggest correction
Creating personal tab
Creating personal tab
You can edit any tab online and save it as your Personal.

You can edit, replace or remove any tab part or add personal notes – all changes will be seen only by you.

Personal tabs can be accessed anytime from any device, even offline.
Learn more »
Give kudos to tab author, rate the tab!
1 2 3 4 5
comments
print report bad tab
1 comment total.
0 reply
PluckU 121 Feb 04, 2009 11:06 AM

mmm i like this better than the guitar pro version. good job

guest
Wanna post a correction for this tab? Suggest correction