Oops, an error
Loading. Please wait.
We have an official Backseat Serenade tab made by UG professional guitarists. Check out the tab »
×

Backseat Serenade ukulele

version 3
version 3

Whole song

Interactive

67 views 3 this week
no commentswrite comment
1 2 3 4 5
1 last vote to show rating
add to favorites
×
Save as Personal and add changes to this tab that will be seen only by you. Learn more ›
×
You can save this tab as Personal to edit and correct it or add notes. All changes will be seen only by you. Learn more »
launch autoscroll
font size
0
reset
transpose
0
reset
display chords
guitar tuner
edit
Autoscroll
slow
fast
+/-
esc
set tempo
stop
Author
Difficulty
About this tab version
This is a mix between fingerpicking and chords on a ukulele. Was this info helpful? Yes No
Strumming Are these strumming patterns correct? Yes No
Chorus 120 bpm
1
&
2
&
3
&
4
&
Listen
Chorus 120 bpm
1
&
2
&
3
&
4
&
Listen
You can use either of the two patterns above for the chorus or just make one up for yourself

If you listen to the acoustic version of this, you can hear the timing for this picking.

These chords are probably similar to other chords that have been written before but they're the easiest
and work the best, in my opinion, with the fingerpicking patterns

[Intro]
A|-----2-----2----------2-----2---|
E|---3-----3----3-----3-----3---3-|
C|-2-----2----------2-----2-------|
G|--------------------------------|

[Verse]
("Lazy lover, find a place for me again..." to "I need a friend, I understand")
A|-----2-----2---------2-----2----------0-----0----------0-----0---------3-----3---------3------3------------|
E|---3-----3---3-----3-----3---3------1-----1---1------1-----1---1-----0-----0---0-----0------0---0----------|
C|-2-----2---------2-----2----------2-----2----------2-----2---------0-----0---------0------0----------------|
G|-----------------------------------------------------------------------------------------------------------|

A|-----2-----2---------0-----0------|
E|---3-----3---3-----1-----1---1----|
C|-2-----2---------0-----0----------|
G|----------------------------------|

A|-----2-----2---------2-----2----------0-----0----------0-----0---------3-----3---------3------3------------|
E|---3-----3---3-----3-----3---3------1-----1---1------1-----1---1-----0-----0---0-----0------0---0----------|
C|-2-----2---------2-----2----------2-----2----------2-----2---------0-----0---------0------0----------------|
G|-----------------------------------------------------------------------------------------------------------|

A|-----2-----2---------0-----0---------0-----0-----0-0-0-0-|
E|---3-----3---3-----1-----1---1-----2-----2---2---2-2-2-2-|
C|-2-----2---------0-----0---------2-----2---------2-2-2-2-|
G|-------------------------------------------------2-2-2-2-|

[Chorus]
         Em
Backseat serenade
      C
Dizzy hurricane
   G                   D
Oh god, I'm sick of sleeping alone
                    Em
You're salty like a summer day
         C
Kiss the sweat away
        D
To your radio
         Em
Backseat serenade
       C
Little hand grenade
   G                   D
Oh god, I'm sick of sleeping alone
                    Em
You're salty like a summer day
         C
Kiss the pain away
        D
To your radio

[Interlude]
A|-----2-----2-------2-2-2-2------|
E|---3-----3----3----3-3-3-3------|
C|-2-----2-----------2-2-2-2------|
G|-------------------0-0-0-0------|

[Verse]
G
You take me over
            Dm
I throw you up against the wall
      C
We've seen it all before
               G
But this one's different
     F
It's deliberate
G
You send me reeling
        Dm
Calling out to you for more
    C                         G
The value of this moment lives in metaphor
        F           D
Yeah, through it all

[Chorus]
         Em
Backseat serenade
      C
Dizzy hurricane
   G                   D
Oh god, I'm sick of sleeping alone
                    Em
You're salty like a summer day
         C
Kiss the sweat away
        D
To your radio
         Em
Backseat serenade
       C
Little hand grenade
   G                   D
Oh god, I'm sick of sleeping alone
                    Em
You're salty like a summer day
         C
Kiss the pain away
        D
To your radio

[Interlude]
A|-----2----2------3----3-------2----2-------3----3------2----2------3-----3------0----0---0-0-0-0|
E|---3----3------0----0-------3----3-------0----0------3----3------0-----0------2----2-----2-2-2-2|
C|-4-----------0------------4------------0-----------4-----------0------------2------------2-2-2-2|
G|-----------------------------------------------------------------------------------------2-2-2-2|

[Chorus]
         Em
Backseat serenade
      C
Dizzy hurricane
   G                   D
Oh god, I'm sick of sleeping alone
                    Em
You're salty like a summer day
         C
Kiss the sweat away
        D
To your radio
         Em
Backseat serenade
       C
Little hand grenade
   G                   D
Oh god, I'm sick of sleeping alone
                    Em
You're salty like a summer day
         C
Kiss the pain away
        D
To your radio

[Outro]
Em C
G                       D
Oh god I'm sick of sleeping alone
Em C D

            
            
Suggest correction
Creating personal tab
Creating personal tab
You can edit any tab online and save it as your Personal.

You can edit, replace or remove any tab part or add personal notes – all changes will be seen only by you.

Personal tabs can be accessed anytime from any device, even offline.
Learn more »
Give kudos to tab author, rate the tab!
1 2 3 4 5
comments
print report bad tab
guest
You may want to rate the tab now too:
select rating
Wanna post a correction for this tab? Suggest correction