Oops, an error
Loading. Please wait.
We have an official Dear Maria Count Me In tab made by UG professional guitarists. Check out the tab »
×

Dear Maria Count Me In Acoustic tab

173,056 views 48 this week
13 commentsread comments
1 2 3 4 5
x 31
add to favorites
×
Save as Personal and add changes to this tab that will be seen only by you. Learn more ›
×
You can save this tab as Personal to edit and correct it or add notes. All changes will be seen only by you. Learn more »
launch autoscroll
font size
0
reset
how to read this tab
guitar tuner
backing track
0:00
0:00
edit
Autoscroll
slow
fast
+/-
esc
set tempo
stop
Alright. This is the way they play their song live when doing it acoustically. The song 
in DADGAD tuning. <----IMPORTANT.  I got this together from watching them play it and 
the rest out by ear.

[Intro part 1:]

"I got your picture..."

d|----0------0------0------0---------|
A|----0------0------0------0---------|
G|----11-----7------7------9---------|
D|----9------5------0------7---------|
A|----9------5------0------7---------|
D|----9------5------0------7---------|

[Intro Part 2:]

(No words)

d|----x------0------0------0------0---0------|
A|----4/5-5--0------0------0------0---0------|
G|----6/7-7--7------9------7------6---7------|
D|----x------5------7------0------4---5------|
A|----x------5------7------0------4---5------|
D|----x------5------7------0------4---5------|

tip: you can slide upwards or downwards chromatically for this chord.

(ex.)

d|------0--0--0--0--------|
A|------0--0--0--0--------|
G|------7--9--11-12-------|
D|------0--0--0--0--------|
A|------0--0--0--0--------|
D|------0--0--0--0--------|

anyway...

[Verse]

"When the lights go off..."

d|------0------0------0------0-----|
A|------0------0------0------0-----|
G|------7------7------4------9-----|
D|------0------5------2------7-----|
A|------0------5------2------7-----|
D|------0------5------2------7-----|

d|------0------0------0------0-0----|
A|------0------0------0------0-0----|
G|------7------7------4------9-9----|
D|------0------5------2------7-8----|
A|------0------5------2------7-8----|
D|------0------5------2------7-8----|

[Chorus]

"I got your picture..."

d|----0------0------0------0-----------|
A|----0------0------0------0-----------|
G|----11-----7------7------9-----------|
D|----9------5------0------7-----------|  (x2)
A|----9------5------0------7-----------|
D|----9------5------0------7-----------|

Back to Intro part 2, come in with "Then in the field" early.

"Field..."

d|------0------0------0------0-----|
A|------0------0------0------0-----|
G|------7------7------4------9-----|
D|------0------5------2------7-----|
A|------0------5------2------7-----|
D|------0------5------2------7-----|

d|------0-------0------0------0-0----|
A|------0---S---0------0------0-0----|
G|------7---T---7------4------9-9----|
D|------0---O---5------2------7-8----|
A|------0---P---5------2------7-8----|
D|------0-------5------2------7-8----|

Chorus again.

[Bridge]

The rhythm here can be kind of tricky, listen to the song and you'll get it.

d|------0------0-0-0------0-0--------|
A|------0------0-0-0------0-0--------|
G|------9------9-6-7------7-9--------|
D|------0------7-4-5------5-7--------|   (x5)
A|------0------7-4-5------5-7--------|
D|------0------7-4-5------5-7--------|

last time through:

"Always wanting moreeeeee..."

d|------0------0-0-0--------|
A|------0------0-0-0--------|
G|------9------9-6-7--------|
D|------0------7-4-5--------|
A|------0------7-4-5--------|
D|------0------7-4-5--------|

Last time Chorus:

d|----0-------0------0------0-----------|
A|----0---S---0------0------0-----------|
G|----11--T---7------7------9-----------|
D|----9---O---5------0------7-----------|  (x2)
A|----9---P---5------0------7-----------|
D|----9-------5------0------7-----------|

"I got your picture...."

(strum each once)

d|----0------0------0------0---------|
A|----0------0------0------0---------|
G|----11-----7------7------9---------|
D|----9------5------0------7---------|
A|----9------5------0------7---------|
D|----9------5------0------7---------|

Thanks guys, if you need help watch this video:

http://www.youtube.com/watch?v=bT0TLrEPqU0

it's not me, but it'll help if you're stuck. maybe. ha

later.


************************************

| x  Dead note
| /  Slide up 

************************************

            
            
Suggest correction
Creating personal tab
Creating personal tab
You can edit any tab online and save it as your Personal.

You can edit, replace or remove any tab part or add personal notes – all changes will be seen only by you.

Personal tabs can be accessed anytime from any device, even offline.
Learn more »
comments
print report bad tab
13 comments total. Showing first comments.
-2 reply
kippysmith 10 Aug 30, 2008 10:55 AM

Very nice, pretty much flawless, except for one part.
a I----4/5-5--
g I----6/7-7--
There, I think it should 4 and 6 on the fifth and third strings, instead of the second and third strings.

-1 reply
DeanLo 10 Sep 23, 2008 04:05 PM

i really don't think it's dadgad. I keep listening to the video http://www.youtube.com/watch?v=dfmjSB7IcPg and playing the song at the same time and it sounds a halfstep lower than dadgad.

It sounds much closer in drop D, halftone lowered. which would be

Db Ab Db Gb Bb Eb

0 reply
tco3887 98 Oct 08, 2008 11:51 PM

When they play things live, they drop it a half step. It helps save Alex's voice. Thanks :)

guest
You may want to rate the tab now too:
select rating
Wanna post a correction for this tab? Suggest correction