Oops, an error
Loading. Please wait.

Life Of The Party tab

1,846 views 48 this week
1 commentread comment
1 2 3 4 5
x 4
add to favorites
×
Save as Personal and add changes to this tab that will be seen only by you. Learn more ›
×
You can save this tab as Personal to edit and correct it or add notes. All changes will be seen only by you. Learn more »
launch autoscroll
font size
0
reset
how to read this tab
guitar tuner
edit
Autoscroll
slow
fast
+/-
esc
set tempo
stop
[Intro]
e|--------------12---9---------------12---9----------------------------------|
B|--------10------------------10---------------12----------------------------|
G|-11--------------------11--------------------------------------------------|
D|---------------------------------------------------------------------------|
A|---------------------------------------------------------------------------|
E|---------------------------------------------------------------------------|

e|--------------12---9---------------12---9----------------------------------|
B|--------10------------------10---------------12----------------------------|
G|-11--------------------11--------------------------------------------------|
D|---------------------------------------------------------------------------|
A|---------------------------------------------------------------------------|
E|---------------------------------------------------------------------------|

[Verse]
e|---------------------------------------------------------------------------|
B|-12-10----10---10-----10----12-10----10---10-----10------------------------|
G|--------9----9-----11--------------9----9-----11---------------------------|
D|---------------------------------------------------------------------------|
A|---------------------------------------------------------------------------|
E|---------------------------------------------------------------------------|

e|---------------------------------------------------------------------------|
B|-12-10----10---10-----10----12-10----10---10-----10------------------------|
G|--------9----9-----11--------------9----9-----11---------------------------|
D|---------------------------------------------------------------------------|
A|---------------------------------------------------------------------------|
E|---------------------------------------------------------------------------|

e|---------------------------------------------------------------------------|
B|-12-10----10---10-----10----12-10----10---10-----10------------------------|
G|--------9----9-----11--------------9----9-----11---------------------------|
D|---------------------------------------------------------------------------|
A|---------------------------------------------------------------------------|
E|---------------------------------------------------------------------------|

e|---------------------------------------------------------------------------|
B|-12-10----10---10-----10----12-10----10---10-----10------12-10-------------|
G|--------9----9-----11--------------9----9-----11---------------9-----------|
D|---------------------------------------------------------------------------|
A|---------------------------------------------------------------------------|
E|---------------------------------------------------------------------------|

[Chorus]
e|---------------------------------------------------------------------------|
B|--7----9--10-----12----9-----12---9----10----------------------------------|
G|---------------------------------------------------------------------------|
D|--4----6--7------9-----6-----9----6----7-----------------------------------|
A|---------------------------------------------------------------------------|
E|---------------------------------------------------------------------------|

e|---------------------------------------------------------------------------|
B|--7----9--10-----12----9-----12---9----10----------------------------------|
G|---------------------------------------------------------------------------|
D|--4----6--7------9-----6-----9----6----7-----------------------------------|
A|---------------------------------------------------------------------------|
E|---------------------------------------------------------------------------|

e|--------------12---9---------------12---9----------------------------------|
B|--------10------------------10---------------12----------------------------|
G|-11--------------------11--------------------------------------------------|
D|---------------------------------------------------------------------------|
A|---------------------------------------------------------------------------|
E|---------------------------------------------------------------------------|

e|--------------12---9---------------12---9----------------------------------|
B|--------10------------------10---------------12----------------------------|
G|-11--------------------11--------------------------------------------------|
D|---------------------------------------------------------------------------|
A|---------------------------------------------------------------------------|
E|---------------------------------------------------------------------------|

[Verse 2]
e|---------------------------------------------------------------------------|
B|-12-10----10---10-----10----12-10----10---10-----10------------------------|
G|--------9----9-----11--------------9----9-----11---------------------------|
D|---------------------------------------------------------------------------|
A|---------------------------------------------------------------------------|
E|---------------------------------------------------------------------------|

e|---------------------------------------------------------------------------|
B|-12-10----10---10-----10----12-10----10---10-----10------12-10-------------|
G|--------9----9-----11--------------9----9-----11---------------9-----------|
D|---------------------------------------------------------------------------|
A|---------------------------------------------------------------------------|
E|---------------------------------------------------------------------------|

[Chorus]
e|---------------------------------------------------------------------------|
B|--7----9--10-----12----9-----12---9----10----------------------------------|
G|---------------------------------------------------------------------------|
D|--4----6--7------9-----6-----9----6----7-----------------------------------|
A|---------------------------------------------------------------------------|
E|---------------------------------------------------------------------------|

e|---------------------------------------------------------------------------|
B|--7----9--10-----12----9-----12---9----10----------------------------------|
G|---------------------------------------------------------------------------|
D|--4----6--7------9-----6-----9----6----7-----------------------------------|
A|---------------------------------------------------------------------------|
E|---------------------------------------------------------------------------|

e|--------------12---9---------------12---9----------------------------------|
B|--------10------------------10---------------12----------------------------|
G|-11--------------------11--------------------------------------------------|
D|---------------------------------------------------------------------------|
A|---------------------------------------------------------------------------|
E|---------------------------------------------------------------------------|

e|--------------12---9---------------12---9----------------------------------|
B|--------10------------------10---------------12----------------------------|
G|-11--------------------11--------------------------------------------------|
D|---------------------------------------------------------------------------|
A|---------------------------------------------------------------------------|
E|---------------------------------------------------------------------------|

[Bridge]
e|---------------------------------------------------------------------------|
B|-12-10----10---10-----10----12-10----10---10-----10------------------------|
G|--------9----9-----11--------------9----9-----11---------------------------|
D|---------------------------------------------------------------------------|
A|---------------------------------------------------------------------------|
E|---------------------------------------------------------------------------|

e|---------------------------------------------------------------------------|
B|-12-10----10---10-----10----12-10----10---10-----10------------------------|
G|--------9----9-----11--------------9----9-----11---------------------------|
D|---------------------------------------------------------------------------|
A|---------------------------------------------------------------------------|
E|---------------------------------------------------------------------------|

e|---------------------------------------------------------------------------|
B|-12-10----10---10-----10----12-10----10---10-----10------------------------|
G|--------9----9-----11--------------9----9-----11---------------------------|
D|---------------------------------------------------------------------------|
A|---------------------------------------------------------------------------|
E|---------------------------------------------------------------------------|

e|---------------------------------------------------------------------------|
B|-12-10----10---10-----10----12-10----10---10-----10------------------------|
G|--------9----9-----11--------------9----9-----11---------------------------|
D|---------------------------------------------------------------------------|
A|---------------------------------------------------------------------------|
E|---------------------------------------------------------------------------|

e|---------------------------------------------------------------------------|
B|-12-10----10---10-----10----12-10----10---10-----10------------------------|
G|--------9----9-----11--------------9----9-----11---------------------------|
D|---------------------------------------------------------------------------|
A|---------------------------------------------------------------------------|
E|---------------------------------------------------------------------------|

e|---------------------------------------------------------------------------|
B|-12-10----10---10-----10----12-10----10---10-----10------------------------|
G|--------9----9-----11--------------9----9-----11---------------------------|
D|---------------------------------------------------------------------------|
A|---------------------------------------------------------------------------|
E|---------------------------------------------------------------------------|

[Final Chorus]
e|--12----12----12----12---------12----12----12----12------------------------|
B|---------------------------------------------------------------------------|
G|-----9-----9-----9-----9----------9-----9-----9-----9----------------------|
D|---------------------------------------------------------------------------|
A|---------------------------------------------------------------------------|
E|---------------------------------------------------------------------------|

e|--12----12----12----12---------12----12----12----12------------------------|
B|---------------------------------------------------------------------------|
G|-----9-----9-----9-----9----------9-----9-----9-----9----------------------|
D|---------------------------------------------------------------------------|
A|---------------------------------------------------------------------------|
E|---------------------------------------------------------------------------|

e|---------------------------------------------------------------------------|
B|--7----9--10-----12----9-----12---9----10----------------------------------|
G|---------------------------------------------------------------------------|
D|--4----6--7------9-----6-----9----6----7-----------------------------------|
A|---------------------------------------------------------------------------|
E|---------------------------------------------------------------------------|

e|---------------------------------------------------------------------------|
B|--7----9--10-----12----9-----12---9----10----------------------------------|
G|---------------------------------------------------------------------------|
D|--4----6--7------9-----6-----9----6----7-----------------------------------|
A|---------------------------------------------------------------------------|
E|---------------------------------------------------------------------------|

e|--------------12---9---------------12---9----------------------------------|
B|--------10------------------10---------------12----------------------------|
G|-11--------------------11--------------------------------------------------|
D|---------------------------------------------------------------------------|
A|---------------------------------------------------------------------------|
E|---------------------------------------------------------------------------|

e|--------------12---9---------------12---9----------------------------------|
B|--------10------------------10---------------12----------------------------|
G|-11--------------------11--------------------------------------------------|
D|---------------------------------------------------------------------------|
A|---------------------------------------------------------------------------|
E|---------------------------------------------------------------------------|

            
            
Suggest correction
Creating personal tab
Creating personal tab
You can edit any tab online and save it as your Personal.

You can edit, replace or remove any tab part or add personal notes – all changes will be seen only by you.

Personal tabs can be accessed anytime from any device, even offline.
Learn more »
comments
print report bad tab
1 comment total.
0 reply
htconexus404 114 Jul 31, 2017 10:57 AM

Awesome! Thank You!

guest
You may want to rate the tab now too:
select rating
Wanna post a correction for this tab? Suggest correction