Oops, an error
Loading. Please wait.

Love Like War tab

1,534 views 12 this week
3 commentsread comments
1 2 3 4 5
x 3
add to favorites
×
Save as Personal and add changes to this tab that will be seen only by you. Learn more ›
×
You can save this tab as Personal to edit and correct it or add notes. All changes will be seen only by you. Learn more »
launch autoscroll
font size
0
reset
how to read this tab
guitar tuner
edit
Autoscroll
slow
fast
+/-
esc
set tempo
stop
-------------------------------------------------------------------------------
                             SONG NAME - Band Name
-------------------------------------------------------------------------------
Tabbed by:
E-mail:

Tuning:

e|---------------------------------------------------------------------------|
B|---------------------------------------------------------------------------|
G|---------------------------------------------------------------------------|
D|---------------------------------------------------------------------------|
A|---------------------------------------------------------------------------|
E|---------------------------------------------------------------------------|

e|---------------------------------------------------------------------------|
B|---------------------------------------------------------------------------|
G|-----5-5-5-5-6------------6----5-5-5-5-------------------------------------| Intro and verse
D|-----6-6-6-6-6-----1-----5-----5-5-5-5-0----3---3-5-6----------------------|
A|-----4-4-4-4-4-----1----6------3-3-3-3-7----3------------------------------|
E|-------------------1-------------------6----3------------------------------|

e|---------------------------------------------------------------------------|
B|------------5/8/9/11-------------------------------------------------------|
G|---------------------------------------------------------------------------| Pre chorus X2
D|---------------------------------------------------------------------------|
A|---------------------------------------------------------------------------|
E|---------------------------------------------------------------------------|

e|---------------------------------------------------------------------------|
B|---------------------------------------------------------------------------|
G|------6-5-3----------------------------------------------------------------|
D|------6-5-3--1-3-6-----------------------------------------------------------| CHROUS
A|------4-3-1--1-3-6-----------------------------------------------------------|
E|-------------1-3-6-----------------------------------------------------------|

e|---------------------------------------------------------------------------|
B|---------------------------------------------------------------------------|
G|----6-3-1-m and strum------5-6-3-m and strum-------------------------------|
D|----6-3-1-m and strum------5-6-3-m and strum-------------------------------| AFTER CHORUS
A|----4-1-1-m and strum------3-6-3-m and strum-------------------------------|
E|---------------------------------------------------------------------------|

e|---------------------------------------------------------------------------|
B|-----9-9-----9-9------8-8---8---------8-8---8----9-9-----9-9--9-9-----9-9--|
G|--------10-10---10-8-8---8-8-------8-8---8-8--------10-10---10---10-10---10|
D|---------------------------------------------------------------------------| SOLO
A|---------------------------------------------------------------------------|
E|---------------------------------------------------------------------------|

e|--------------------------------------------------15-16-18/20\16-----------|
B|--------11/13\9-----OR without octave medal-----16-------------------------|
G|---12-13-------------------------------------------------------------------|
D|-13------------------------------------------------------------------------|SOLO
A|---------------------------------------------------------------------------|
E|---------------------------------------------------------------------------|

e|---------------------------------------------------------------------------|
B|---------------------------------------------------------------------------|
G|---------------------------------------------------------------------------|
D|---------------------------------------------------------------------------|Outro same as be4
A|---------------------------------------------------------------------------|
E|---------------------------------------------------------------------------|


************************************

| /   slide up
| \   slide down
| h   hammer-on
| p   pull-off
| ~   vibrato
| +   harmonic
| x   Mute note
| b   Bend
| pb  Pre-bend
| br  Bend release
| pbr Pre-bend release
| brb Bend release bend

************************************

            
            
Suggest correction
Creating personal tab
Creating personal tab
You can edit any tab online and save it as your Personal.

You can edit, replace or remove any tab part or add personal notes – all changes will be seen only by you.

Personal tabs can be accessed anytime from any device, even offline.
Learn more »
Give kudos to tab author, rate the tab!
1 2 3 4 5
comments
print report bad tab
3 comments total.
0 reply
Sam Rulez D00d 948 Oct 17, 2014 05:08 PM

Lack of accuracy. They play it in Drop C# with a capo on the 2nd fret. A lot of your riffs are wrong.

0 reply
Sam Rulez D00d 948 Oct 17, 2014 05:10 PM

Didn't mean to sound like an ass, UG forced me to comment that when I rated haha. Sorry

0 reply
lg187 3,145 Jan 01, 2015 02:08 PM

Lack of formatting. Lack of accuracy. Tab incomplete. Intro is wrong, incomplete tab, title is "A Love Like War" not "Love Like War", did not fill in title/email/name/tuning etc

guest
Wanna post a correction for this tab? Suggest correction