Oops, an error
Loading. Please wait.

Old Scars Future Hearts tab

3,976 views 15 this week
no commentswrite comment
1 2 3 4 5
x 8
add to favorites
×
Save as Personal and add changes to this tab that will be seen only by you. Learn more ›
×
You can save this tab as Personal to edit and correct it or add notes. All changes will be seen only by you. Learn more »
launch autoscroll
font size
0
reset
how to read this tab
guitar tuner
edit
Autoscroll
slow
fast
+/-
esc
set tempo
stop
-----------------------------------------------------------------------------
                     OLD SCARS / FUTURE HEARTS - All Time Low
-----------------------------------------------------------------------------
Tuning: Drop D (DADGBe)

This is a pretty cool song, one of the few songs ATL has done with the chord progression of Dm, Bb & C. 
Most of it should be correct, the low notes in the prechorus I'm not 100% sure of. Hope this helps!

Here's my guitar cover for the song!: https://www.youtube.com/watch?v=FJuwF1To8ZU

Intro (0:03):

Guitar 1
e|-----------------------------------------------------------------------------|
B|-----------------------------------------------------------------------------|
G|-----------------------------------------------------------------------------|
D|-7------3-----5-----7------3-----5-----7------3-----5-----7------3-----5-----|
A|-5--x16-1--x8-3--x8-5--x16-1--x8-3--x8-5--x16-1--x8-3--x8-5--x16-1--x8-3--x8-|
D|-----------------------------------------------------------------------------|
   *      *     *     *      *     *     *      *     *     *      *     *
Guitar 2
e|--------------------------------------------------------------------------------------|
B|-------------------------------------.----.---.---.---.----.---.----.---.-------------|
G|-----------------------------------555---77--77--77--77---33--33---55--55-------------|
D|------------(silence)--------------555---77--77--77--77---33--33---55--55--(silence)--|
A|-----------------------------------333---55--55--55--55---11--11---33--33-------------|
D|--------------------------------------------------------------------------------------|

Prechorus:

Guitar 1
e|----------------------------------------------------------|
B|----------------------------------------------------------|
G|-3~---/5~---7~-------3~---/5~----------.------------------|
D|-3~---/5~---7~-------3~---/5~----------7------------------|
A|-1~---/3~---5~-------1~---/3~---5--x15-5------------------|
D|----------------------------------------------------------|

Guitar 2 (clean)                                   V Back to distortion
e|---5-3-5---5-3-5---5-3-5---5-3-5---5-3-5---5-3-5----------|
B|-3---------------3-------3-------3----------------------.-|
G|---------5-------------------------------5--------------2-|
D|-------------------------------------------------0--x15-0-|
A|----------------------------------------------------------|
D|----------------------------------------------------------|

Chorus:

Guitar 1
e|-----------------------------------------2x-|--------------|
B|--------------------------------------------|--------------|
G|-------5-----7-----3-----------5-----7------|-7------3~-5~-|
D|-3-----5--x8-7--x8-3--x8-3-----5--x8-7--x16-|-7--x16-3~-5~-|
A|-3--x8-3-----5-----1-----3--x8-3-----5------|-5------1~-3~-|
D|-3-----------------------3------------------|--------------|

Guitar 2
e|-----------------------------------------------------------------------------|
B|-----------------------------------------------------------------------------|
G|-------12-----10----7-----14~14~14/15-14-12~-12~12~12~-10~-14-----10~-14-----|
D|-3---------x8----x8----x8--------------------------------------x4---------x4-|
A|-3--x8-10-----8-----5-----12~12~12/13-12-10~-10~10~10~-8~--12-----8~--12-----|
D|-3---------------------------------------------------------------------------|

e|---------1.-|----------------------------------------2.-||
B|------------|-------------------------------------------||
G|-14\12-10\9-|-12~-10~-10----14-----10----14-----10~-12~-|| Play "1.", then play the above bar. Then
D|------------|------------x4-----x4----x4-----x4---------|| skip "1." and play "2." instead
A|-12\10-8-\7-|-10~-8~--8-----12-----8-----12-----8~--10~-||
D|------------|-------------------------------------------||

Verse 2:

Guitar 1
e|-----------------------------------------------------------------------------|
B|-----------------------------------------------------------------------------|
G|-----------------------------------------------------------------------------|
D|-7------3-----5-----7------3-----5-----7------3-----5-----7------3-----5-----|
A|-5--x16-1--x8-3--x8-5--x16-1--x8-3--x8-5--x16-1--x8-3--x8-5--x16-1--x8-3--x8-|
D|-----------------------------------------------------------------------------|
   *      *     *     *      *     *     *      *     *     *      *     *
Guitar 2
e|--------------8-8---------------------------------|---4x-|---2x-|--------------------------------|
B|--------------.-.--.-.---------------8--x16---.---|----.-|----.-|--.---.-------------8--x8-------|
G|-7--x16------------5-5-7~-------------------555---|-1414-|-1010-|-99--99-------------------5-----|
D|--------7--x8------5-5-7~--(silence)--------555---|------|------|---------(silence)--------5--x8-|
A|-------------------3-3-5~-------------------333---|-1212-|-8-8--|-77--77-------------------3-----|
D|--------------------------------------------------|------|------|--------------------------------|
   *      *                            *                                               *
Repeat:
Prechorus

Chorus 2:

Guitar 1
e|-------------------------------------|-----1.-|
B|-------------------------------------|--------|
G|-------5-----7-----3-----------5-----|-7------|
D|-3-----5--x8-7--x8-3--x8-3-----5--x8-|-7--x16-|
A|-3--x8-3-----5-----1-----3--x8-3-----|-5------|
D|-3-----------------------3-----------|--------|

Guitar 2
e|-------------------------------------------------------|-------------------------------1.-|
B|-------------------------------------------------------|----------------------------------|
G|-------12-----10----7-----14~14~14/15-14-12~-12~12~12~-|-10~-14-----10~-14-----14\12-10\9-|
D|-3---------x8----x8----x8------------------------------|---------x4---------x4------------|
A|-3--x8-10-----8-----5-----12~12~12/13-12-10~-10~10~10~-|-8~--12-----8~--12-----12\10-8-\7-|
D|-3-----------------------------------------------------|----------------------------------|

Bridge (starts with the 2nd ending of the chorus above):

Guitar 1
e|-----------------------------------------------------------------------------------------------2.-||
B|--------------------------------------------------------------------------------------------------||
G|-7\-----------------------------------------------.------------------------------------------.--.-||
D|-------------------------------------------------00------------------------------------------3--5-||
A|-5\----------------------------------------------00------------------------------------------1--3-||
D|-------------------------------------------------00-----------------------------------------------||

Guitar 2
e|-----------------------------------------------------------------------------------------------2.-||
B|---------------------------------------------------------------------------------------------.--.-||
G|-10~-14-----7777-xx-1010-99-7777-xx-7~7~-xx-3~-5~-10~-14-----7777-xx-1010-99-7777-xx-7~7~-xx-3--5-||
D|---------x4------xx--------------xx------xx---------------x4------xx--------------xx------xx------||
A|-8~--12-----5555-55-8-8--77-5555-55-5~5~-xx-1~-3~-8~--12-----5555-55-8-8--77-5555-55-5~5~-xx-1--3-||
D|-----------------00--------------00-------------------------------00--------------00--------------||

Note -- these parts^ with the low D note sounds like there is some mutes being played, either by this
        guitar or another guitar

Bridge Pt. 2 (both guitars), 4x:
e|-----------------------------------------------|
B|-----------------------------------------------|
G|-7~77----77------1010-99-7~77----77------3~-5~-|
D|------0~----0~----------------0~----0~---------|
A|-5~55-0~-55-0~---8-8--77-5~55-0~-55-0~---1~-3~-|
D|------0~----0~----------------0~----0~---------|

Prechorus 3:

Guitar 1 (quieter)                            Guitar 2
e|------------------------------------------||--------------------------------------------------|
B|----------------------------------------.-||------------------------------------------------.-|
G|-3~---/5~---7~-----------------------7777-||--(silence)-----------------------10----14-----14-|
D|-3~---/5~---7~---3--x8--5--x8-77777777777-||-------------------------------------x4-----x4----|
A|-1~---/3~---5~---1------3-----55555555555-||-----------------5--x8--7--x8-88888-----12-----12-|
D|------------------------------------------||--------------------------------------------------|
                   *      *     ****Gradually lift Palm Mute  *      *     ****
Final Chorus:

Guitar 1
e|-----------------------------------------2x-|
B|--------------------------------------------|
G|-------5-----7-----3-----------5-----7------|
D|-3-----5--x8-7--x8-3--x8-3-----5--x8-7--x16-|
A|-3--x8-3-----5-----1-----3--x8-3-----5------|
D|-3-----------------------3------------------|

Guitar 2
e|-----------------------------------------------------------------------------|---------1.-|------2.-||
B|-----------------------------------------------------------------------------|------------|---------||
G|-------12-----10----7-----14~14~14/15-14-12~-12~12~12~-10~-14-----10~-14-----|-14\12-10\9-|-12~-10~-||
D|-3---------x8----x8----x8--------------------------------------x4---------x4-|------------|---------||
A|-3--x8-10-----8-----5-----12~12~12/13-12-10~-10~10~10~-8~--12-----8~--12-----|-12\10-8-\7-|-10~-8~--||
D|-3---------------------------------------------------------------------------|------------|---------||

Final Chorus cont'd:

Guitar 1
e|----------------------------------------------------------------|
B|----------------------------------------------------------------|
G|----------5~55~5~5~-7~7~7~7~-3~33~3~3~-------5-----7------3~-5~-|
D|-3~3~-xxx-5~55~5~5~-7~7~7~7~-3~33~3~3~-3-----5--x8-7--x32-3~-5~-|
A|-3~3~-xxx-3~33~3~3~-5~5~5~5~-1~11~1~1~-3--x8-3-----5------1~-3~-|
D|-3~3~-xxx------------------------------3------------------------|

Guitar 2
e|--------------------------------------------------------------------|
B|--------------------------------------------------------------------|
G|----------5~55~5~5~-7~7~7~7~-3~33~3~3~-14~14~14/15-14-12~-12~12~12~-|
D|-3~3~-xxx-5~55~5~5~-7~7~7~7~-3~33~3~3~------------------------------|
A|-3~3~-xxx-3~33~3~3~-5~5~5~5~-1~11~1~1~-12~12~12/13-12-10~-10~10~10~-|
D|-3~3~-xxx-----------------------------------------------------------|

e|-----------------------------------------------------------------|
B|-----------------------------------------------------------------|
G|-10~-14-----10~-14-----12~-10~-10----14-----10----14-----10~-12~-|
D|---------x4---------x4------------x4-----x4----x4-----x4---------|
A|-8~--12-----8~--12-----10~-8~--8-----12-----8-----12-----8~--10~-|
D|-----------------------------------------------------------------|

Outro (both guitars):
e|------------------------------------------------------------------------------------||
B|------------------------------------------------------------------------------------||
G|-7~77----77------1010-99-7~77----77------3~-5~-7~77----77------1010-99-7~77----77-.-||
D|------0~----0~----------------0~----0~--------------0~----0~----------------0~----0-||
A|-5~55-0~-55-0~---8-8--77-5~55-0~-55-0~---1~-3~-5~55-0~-55-0~---8-8--77-5~55-0~-55-0-||
D|------0~----0~----------------0~----0~--------------0~----0~----------------0~----0-||
___________________________________________________________________
/ or \ - slide to and from a note
* - palm mute
===3=== - triplet
. - release (stop) note from ringing out after playing it
p - pull-off
~ - hold note

            
            
Suggest correction
Creating personal tab
Creating personal tab
You can edit any tab online and save it as your Personal.

You can edit, replace or remove any tab part or add personal notes – all changes will be seen only by you.

Personal tabs can be accessed anytime from any device, even offline.
Learn more »
comments
print report bad tab
guest
You may want to rate the tab now too:
select rating
Wanna post a correction for this tab? Suggest correction