Oops, an error
Loading. Please wait.

Party Scene tab

version 3
version 3

Whole song

Interactive

8,812 views 1 this week
3 commentsread comments
1 2 3 4 5
1 last vote to show rating
add to favorites
×
Save as Personal and add changes to this tab that will be seen only by you. Learn more ›
×
You can save this tab as Personal to edit and correct it or add notes. All changes will be seen only by you. Learn more »
launch autoscroll
font size
0
reset
how to read this tab
guitar tuner
edit
Autoscroll
slow
fast
+/-
esc
set tempo
stop
Author
The Party Scene By All Time Low Tabbed by Lucas =]

Note: The strumming is not approximate.

Tuning: EADGBe

Key: B C# D# E F# G# A# B

P.M. = .

Intro
Guitar 1:
e|---------------------------------------------------------------------------|
B|---------------------------------------------------------------------------|
G|4/6-4/6-22222222-----------------------------------------------------------|
D|4/6-4/6-22222222-----------------------------------------------------------|
A|2/4-2/4-00000000-----------------------------------------------------------|
E|---------------------------------------------------------------------------|

Guitar 2:
e|---------------------------------------------------------------------------|
B|---------------------------------------------------------------------------|
G|11/13-11/13-9--------------------------------------------------------------|
D|---------------------------------------------------------------------------|
A|9/11--9/11--7--------------------------------------------------------------|
E|---------------------------------------------------------------------------|

Interlude
Guitar 1:
e|---------------------------------------------------------------------------|
B|--77-99-77-----------------------------------------------------------------|
G|---------------------------------------------------------------------------|
D|99-------------------------------------------------------------------------|
A|---------------------------------------------------------------------------|
E|---------------------------------------------------------------------------|
  
Guitar 2:
e|---------------------------------------------------------------------------|
B|---------------------------------------------------------------------------|
G|6--------------------------------------------------------------------------|
D|6-7------------------------------------------------------------------------|
A|4-7------------------------------------------------------------------------|
E|--5------------------------------------------------------------------------|
  . .

Pre-Chorus
Guitar 1:
e|---------------------------------------------------------------------------|
B|---------------------------------------------------------------------------|
G|222222--------44444444-----------------------------------------------------|
D|222222-222222-44444444-----------------------------------------------------|
A|000000-222222-22222222-----------------------------------------------------|
E|-------000000--------------------------------------------------------------|

Guitar 2:
e|---------------------------------------------------------------------------|
B|---------------------------------------------------------------------------|
G|9-13-11-8------------------------------------------------------------------|
D|---------------------------------------------------------------------------|
A|7-11-9--6------------------------------------------------------------------|
E|---------------------------------------------------------------------------|

Chorus
Guitar 1:
e|---------------------------------------------------------------------------|
B|---------------------------------------------------------------------------|
G|6-----4--------------------------------------------------------------------|
D|6-7-2-4--------------------------------------------------------------------|
A|4-7-2-2--------------------------------------------------------------------|
E|--5-0----------------------------------------------------------------------|

Guitar 2:
e|---------------------------------------------------------------------------|
B|---------------------------------------------------------------------------|
G|6-----4-6-----4-6-8-9-13-11/13-11/13-9-------------------------------------|
D|6-7-2-4-6-7-2-4------------------------------------------------------------|
A|4-7-2-2-4-7-2-2-4-6-7-11-9/11--9/11--7-------------------------------------|
E|--5-0-----5-0--------------------------------------------------------------|

Verse
Guitar 1: Clap =]

Guitar 2:
e|---------------------------------------------------------------------------|
B|---------------------------------------------------------------------------|
G|66666-------22222222222-44444----------------------------------------------|
D|66666-22222-22222222222-44444----------------------------------------------|
A|44444-22222-00000000000-22222----------------------------------------------|
E|------00000----------------------------------------------------------------|
   ....  ....  .... .. ..

Pre-Chorus
Guitar 1:
e|---------------------------------------------------------------------------|
B|---------------------------------------------------------------------------|
G|222222--------44444444-----------------------------------------------------|
D|222222-222222-44444444-----------------------------------------------------|
A|000000-222222-22222222-----------------------------------------------------|
E|-------000000--------------------------------------------------------------|

Guitar 2:
e|---------------------------------------------------------------------------|
B|---------------------------------------------------------------------------|
G|9-13-11-8------------------------------------------------------------------|
D|---------------------------------------------------------------------------|
A|7-11-9--6------------------------------------------------------------------|
E|---------------------------------------------------------------------------|

Chorus
Guitar 1:
e|---------------------------------------------------------------------------|
B|---------------------------------------------------------------------------|
G|6-----4--------------------------------------------------------------------|
D|6-7-2-4--------------------------------------------------------------------|
A|4-7-2-2--------------------------------------------------------------------|
E|--5-0----------------------------------------------------------------------|

Guitar 2:
e|---------------------------------------------------------------------------|
B|---------------------------------------------------------------------------|
G|6-----4-6-----4-6-8-9-13-11/13-11/13-9-------------------------------------|
D|6-7-2-4-6-7-2-4------------------------------------------------------------|
A|4-7-2-2-4-7-2-2-4-6-7-11-9/11--9/11--7-------------------------------------|
E|--5-0-----5-0--------------------------------------------------------------|

Bridge
Guitar 1: 
e|---------------------------------------------------------------------------|
B|---------------------------------------------------------------------------|
G|66666-------22222222222-44444-66666-------2222222222-44444-----------------|
D|66666-22222-22222222222-44444-66666-22222-2222222222-44444-----------------|
A|44444-22222-00000000000-22222-44444-22222-0000000000-22222-----------------|
E|------00000-------------------------00000----------------------------------|
  ..... .....  .. .. .. .                         ....
e|---------------------------------------------------------------------------|
B|---------------------------------------------------------------------------|
G|------------99---88---99---88-99\88/99\88/99/1111--------------------------|
D|---------------------------------------------------------------------------|
A|------------------------------77\66/77\66/77/9-9---------------------------|
E|---------------------------------------------------------------------------|
              ..   ..
Solo
Guitar 1:
e|---------------------------------------------------------------------------|
B|--------------------------------------------12-----------------------------|
G|13--------------------------------------------14-13-14-13-9-11-7-9-7\6/7---|
D|--13-14~-14-13-14-16-14-13-16-14-13-11-9~-9--------------------------------|
A|---------------------------------------------------------------------------|
E|---------------------------------------------------------------------------|

e|------------------------------------------------------------------------------|
B|------------7-8-7h8p7-10------------------------17--------------------------17|
G|6/7-7-9-7-9---------------13h14p13-16-13h14p13-------13h14p13-16-13h14p13-----|
D|-----------------------------------------------14-------------------------14--|
A|------------------------------------------------------------------------------|
E|------------------------------------------------------------------------------|

e|---------------------------------------------------------------------------|
B|----------------------17---------------------------------------------------|
G|13h14p13-16-13h14p13-----13-13-13-14-14-14-16-16-16------------------------|
D|--------------------14-----------------------------------------------------|
A|---------------------------------------------------------------------------|
E|---------------------------------------------------------------------------|

Guitar 2:
e|---------------------------------------------------------------------------|
B|---------------------------------------------------------------------------|
G|222222-------4444444444----------------------------------------------------|
D|222222-22222-4444444444----------------------------------------------------|
A|000000-22222-2222222222----------------------------------------------------|
E|-------00000---------------------------------------------------------------|

Chorus
Guitar 1:
e|---------------------------------------------------------------------------|
B|---------------------------------------------------------------------------|
G|6-----4-6-----4-6-8-9-13-11/13-11/13-9-------------------------------------|
D|6-7-2-4-6-7-2-4------------------------------------------------------------|
A|4-7-2-2-4-7-2-2-4-6-7-11-9/11--9/11--7-------------------------------------|
E|--5-0-----5-0--------------------------------------------------------------|

Guitar 2:
e|--------------------------------------------------------------------------|
B|--------------------------------------------------------------------------|
G|13h14p13-------4/6-4/6-2--------------------------------------------------|
D|--------14-----4/6-4/6-2--------------------------------------------------|
A|----------14---2/4-2/4-0--------------------------------------------------|
E|--------------------------------------------------------------------------|
Outro
Guitar 1:
e|---------------------------------------------------------------------------|
B|--77-99-77-----------------------------------------------------------------|
G|---------------------------------------------------------------------------|
D|99-------------------------------------------------------------------------|
A|---------------------------------------------------------------------------|
E|---------------------------------------------------------------------------|
  
Guitar 2:
e|---------------------------------------------------------------------------|
B|---------------------------------------------------------------------------|
G|6--------------------------------------------------------------------------|
D|6-7------------------------------------------------------------------------|
A|4-7------------------------------------------------------------------------|
E|--5------------------------------------------------------------------------|
  . .
End On: C#m

| /  slide up
| \  slide down
| h  hammer-on
| p  pull-off
| ~  vibrato
| +  harmonic
| x  Mute note

            
            
Suggest correction
Creating personal tab
Creating personal tab
You can edit any tab online and save it as your Personal.

You can edit, replace or remove any tab part or add personal notes – all changes will be seen only by you.

Personal tabs can be accessed anytime from any device, even offline.
Learn more »
Give kudos to tab author, rate the tab!
1 2 3 4 5
comments
print report bad tab
3 comments total.
0 reply
livinlarge 10 Aug 10, 2009 12:08 PM

Thank you so much for posting this. this is such a great song and ive been looking everywhere for the real deal, and this is it. THANKS

0 reply
Ample 157 Aug 10, 2009 01:39 PM

Ha , thanks. I tried to get every little detail.

0 reply
Dillonski 100 Aug 31, 2013 02:17 AM

Good tab but the Key is wrong. The third chord of the song is A5 and in the key you've put no A natural only A#.

Good tab though :)

guest
You may want to rate the tab now too:
select rating
Wanna post a correction for this tab? Suggest correction